ISO-10303-21;
HEADER;
FILE_DESCRIPTION (( 'STEP AP203' ),
    '1' );
FILE_NAME ('372575.step',
    '2021-12-08T08:40:08',
    ( '' ),
    ( '' ),
    'SwSTEP 2.0',
    'SolidWorks 2019',
    '' );
FILE_SCHEMA (( 'CONFIG_CONTROL_DESIGN' ));
ENDSEC;

DATA;
#1 = DESIGN_CONTEXT ( 'detailed design', #122, 'design' ) ;
#2 = CARTESIAN_POINT ( 'NONE',  ( 3.444704358586563510E-14, -1.500000000000000444, 9.866025403784433934 ) ) ;
#3 = DIRECTION ( 'NONE',  ( 0.0000000000000000000, 0.0000000000000000000, 1.000000000000000000 ) ) ;
#4 = COORDINATED_UNIVERSAL_TIME_OFFSET ( 1, 0, .AHEAD. ) ;
#5 = CC_DESIGN_APPROVAL ( #198, ( #219 ) ) ;
#6 = PERSON_AND_ORGANIZATION ( #170, #205 ) ;
#7 = DIRECTION ( 'NONE',  ( 3.491481338843133355E-15, -1.276467311168695266E-16, 1.000000000000000000 ) ) ;
#8 = DATE_AND_TIME ( #68, #132 ) ;
#9 = DIRECTION ( 'NONE',  ( 3.491481338843133355E-15, -1.276467311168695266E-16, 1.000000000000000000 ) ) ;
#10 = PERSON_AND_ORGANIZATION_ROLE ( 'creator' ) ;
#11 = CARTESIAN_POINT ( 'NONE',  ( 4.094901095205113395E-31, -3.841940660073961603E-32, 1.172826287126001781E-16 ) ) ;
#12 = DIRECTION ( 'NONE',  ( -3.491481338843133355E-15, 1.224646799147353207E-16, -1.000000000000000000 ) ) ;
#13 = AXIS2_PLACEMENT_3D ( 'NONE', #105, #9, #27 ) ;
#14 = AXIS2_PLACEMENT_3D ( 'NONE', #52, #127, #135 ) ;
#15 = ORIENTED_EDGE ( 'NONE', *, *, #113, .F. ) ;
#16 = EDGE_LOOP ( 'NONE', ( #202 ) ) ;
#17 = FACE_OUTER_BOUND ( 'NONE', #72, .T. ) ;
#18 = AXIS2_PLACEMENT_3D ( 'NONE', #28, #7, #169 ) ;
#19 = DATE_AND_TIME ( #120, #188 ) ;
#20 = CARTESIAN_POINT ( 'NONE',  ( 1.319779946082704535E-13, 1.499999999999996447, 37.79999999999999716 ) ) ;
#21 = CLOSED_SHELL ( 'NONE', ( #111, #191, #64 ) ) ;
#22 = UNCERTAINTY_MEASURE_WITH_UNIT (LENGTH_MEASURE( 1.000000000000000082E-05 ), #95, 'distance_accuracy_value', 'NONE');
#23 = APPROVAL_STATUS ( 'not_yet_approved' ) ;
#24 = CC_DESIGN_PERSON_AND_ORGANIZATION_ASSIGNMENT ( #143, #214, ( #146 ) ) ;
#25 = VERTEX_POINT ( 'NONE', #82 ) ;
#26 = AXIS2_PLACEMENT_3D ( 'NONE', #37, #97, #98 ) ;
#27 = DIRECTION ( 'NONE',  ( -4.456761796588771413E-31, -1.000000000000000000, -1.276467311168695019E-16 ) ) ;
#28 = CARTESIAN_POINT ( 'NONE',  ( 9.308377946195078733E-14, -3.403094278676150455E-15, 26.66025403784433223 ) ) ;
#29 = DIRECTION ( 'NONE',  ( -4.275831445896958607E-31, -1.000000000000000000, -1.224646799147353207E-16 ) ) ;
#30 = EDGE_LOOP ( 'NONE', ( #189 ) ) ;
#31 = AXIS2_PLACEMENT_3D ( 'NONE', #171, #106, #199 ) ;
#32 = AXIS2_PLACEMENT_3D ( 'NONE', #96, #114, #86 ) ;
#33 = ORIENTED_EDGE ( 'NONE', *, *, #91, .F. ) ;
#34 = PRODUCT_DEFINITION_SHAPE ( 'NONE', 'NONE',  #146 ) ;
#35 = APPROVAL_DATE_TIME ( #196, #66 ) ;
#36 = MANIFOLD_SOLID_BREP ( 'Corps-Déplacer/Copier1[1]', #57 ) ;
#37 = CARTESIAN_POINT ( 'NONE',  ( 0.0000000000000000000, 0.0000000000000000000, 0.0000000000000000000 ) ) ;
#38 = VERTEX_POINT ( 'NONE', #20 ) ;
#39 = APPROVAL_DATE_TIME ( #145, #198 ) ;
#40 = LOCAL_TIME ( 9, 40, 8.000000000000000000, #62 ) ;
#41 = AXIS2_PLACEMENT_3D ( 'NONE', #173, #12, #140 ) ;
#42 = EDGE_CURVE ( 'NONE', #130, #130, #155, .T. ) ;
#43 = DATE_AND_TIME ( #131, #40 ) ;
#44 = DIRECTION ( 'NONE',  ( 0.0000000000000000000, -1.000000000000000000, 0.0000000000000000000 ) ) ;
#45 = CONICAL_SURFACE ( 'NONE', #18, 5.999999999999999112, 0.2617993877991501850 ) ;
#46 = FACE_OUTER_BOUND ( 'NONE', #161, .T. ) ;
#47 = APPROVAL ( #23, 'UNSPECIFIED' ) ;
#48 = ADVANCED_FACE ( 'NONE', ( #17, #70 ), #179, .T. ) ;
#49 = PRODUCT_DEFINITION_FORMATION_WITH_SPECIFIED_SOURCE ( 'ANY', '', #181, .NOT_KNOWN. ) ;
#50 = PERSON_AND_ORGANIZATION_ROLE ( 'classification_officer' ) ;
#51 = ORIENTED_EDGE ( 'NONE', *, *, #42, .F. ) ;
#52 = CARTESIAN_POINT ( 'NONE',  ( 1.319779946082704535E-13, -4.629164900776995227E-15, 37.79999999999999716 ) ) ;
#53 = ORIENTED_EDGE ( 'NONE', *, *, #185, .F. ) ;
#54 = EDGE_LOOP ( 'NONE', ( #33 ) ) ;
#55 = DIRECTION ( 'NONE',  ( 3.491481338843133355E-15, -1.224646799147353207E-16, 1.000000000000000000 ) ) ;
#56 = CARTESIAN_POINT ( 'NONE',  ( 2.793185071074506684E-14, -1.000000000000000000, 8.000000000000000000 ) ) ;
#57 = CLOSED_SHELL ( 'NONE', ( #222, #48, #194, #167, #158 ) ) ;
#58 =( NAMED_UNIT ( * ) SI_UNIT ( $, .STERADIAN. ) SOLID_ANGLE_UNIT ( ) );
#59 = DATE_TIME_ROLE ( 'creation_date' ) ;
#60 = CC_DESIGN_PERSON_AND_ORGANIZATION_ASSIGNMENT ( #6, #50, ( #219 ) ) ;
#61 = CARTESIAN_POINT ( 'NONE',  ( 1.326762908760390423E-13, 1.299999999999996270, 38.00000000000000000 ) ) ;
#62 = COORDINATED_UNIVERSAL_TIME_OFFSET ( 1, 0, .AHEAD. ) ;
#63 = FACE_OUTER_BOUND ( 'NONE', #136, .T. ) ;
#64 = ADVANCED_FACE ( 'NONE', ( #208 ), #162, .F. ) ;
#65 = DIRECTION ( 'NONE',  ( -3.491481338843133355E-15, 1.276467311168695266E-16, -1.000000000000000000 ) ) ;
#66 = APPROVAL ( #148, 'UNSPECIFIED' ) ;
#67 = DIRECTION ( 'NONE',  ( 3.491481338843133355E-15, -1.224646799147353207E-16, 1.000000000000000000 ) ) ;
#68 = CALENDAR_DATE ( 2021, 8, 12 ) ;
#69 = CC_DESIGN_SECURITY_CLASSIFICATION ( #219, ( #49 ) ) ;
#70 = FACE_BOUND ( 'NONE', #30, .T. ) ;
#71 = ORIENTED_EDGE ( 'NONE', *, *, #207, .F. ) ;
#72 = EDGE_LOOP ( 'NONE', ( #110 ) ) ;
#73 = DIRECTION ( 'NONE',  ( -4.275831445896958607E-31, -1.000000000000000000, -1.224646799147353207E-16 ) ) ;
#74 = SHAPE_DEFINITION_REPRESENTATION ( #34, #177 ) ;
#75 = CYLINDRICAL_SURFACE ( 'NONE', #26, 1.499999999999999112 ) ;
#76 = CC_DESIGN_APPROVAL ( #66, ( #146 ) ) ;
#77 = APPROVAL_ROLE ( '' ) ;
#78 = CIRCLE ( 'NONE', #32, 1.300000000000000711 ) ;
#79 = CC_DESIGN_DATE_AND_TIME_ASSIGNMENT ( #8, #156, ( #219 ) ) ;
#80 = PERSON_AND_ORGANIZATION_ROLE ( 'design_owner' ) ;
#81 = COORDINATED_UNIVERSAL_TIME_OFFSET ( 1, 0, .AHEAD. ) ;
#82 = CARTESIAN_POINT ( 'NONE',  ( -3.618607013836511207E-32, -0.9999999999999986677, -1.036410240426918204E-17 ) ) ;
#83 = PERSON_AND_ORGANIZATION ( #170, #205 ) ;
#84 =( GEOMETRIC_REPRESENTATION_CONTEXT ( 3 ) GLOBAL_UNCERTAINTY_ASSIGNED_CONTEXT ( ( #22 ) ) GLOBAL_UNIT_ASSIGNED_CONTEXT ( ( #95, #117, #58 ) ) REPRESENTATION_CONTEXT ( 'NONE', 'WORKASPACE' ) );
#85 = CARTESIAN_POINT ( 'NONE',  ( 2.793185071074506684E-14, -1.021173848934956212E-15, 8.000000000000000000 ) ) ;
#86 = DIRECTION ( 'NONE',  ( 0.0000000000000000000, 1.000000000000000000, 0.0000000000000000000 ) ) ;
#87 = PERSON_AND_ORGANIZATION_ROLE ( 'design_supplier' ) ;
#88 = CARTESIAN_POINT ( 'NONE',  ( 3.444704358586563510E-14, -1.259365891909075479E-15, 9.866025403784433934 ) ) ;
#89 = SECURITY_CLASSIFICATION_LEVEL ( 'unclassified' ) ;
#90 = CIRCLE ( 'NONE', #14, 1.500000000000000888 ) ;
#91 = EDGE_CURVE ( 'NONE', #25, #25, #112, .T. ) ;
#92 = CARTESIAN_POINT ( 'NONE',  ( 2.793185071074506684E-14, -1.021173848934956212E-15, 8.000000000000000000 ) ) ;
#93 = EDGE_LOOP ( 'NONE', ( #15 ) ) ;
#94 = APPROVAL_PERSON_ORGANIZATION ( #121, #47, #180 ) ;
#95 =( LENGTH_UNIT ( ) NAMED_UNIT ( * ) SI_UNIT ( .MILLI., .METRE. ) );
#96 = CARTESIAN_POINT ( 'NONE',  ( 1.326762908760390423E-13, -4.653657836759941941E-15, 38.00000000000000000 ) ) ;
#97 = DIRECTION ( 'NONE',  ( -3.491481338843133355E-15, 1.224646799147353207E-16, -1.000000000000000000 ) ) ;
#98 = DIRECTION ( 'NONE',  ( 4.275831445896958607E-31, 1.000000000000000000, 1.224646799147353454E-16 ) ) ;
#99 = VERTEX_POINT ( 'NONE', #2 ) ;
#100 = PLANE ( 'NONE',  #211 ) ;
#101 = APPROVAL_STATUS ( 'not_yet_approved' ) ;
#102 = EDGE_CURVE ( 'NONE', #38, #38, #90, .T. ) ;
#103 = LOCAL_TIME ( 9, 40, 8.000000000000000000, #4 ) ;
#104 = AXIS2_PLACEMENT_3D ( 'NONE', #223, #55, #73 ) ;
#105 = CARTESIAN_POINT ( 'NONE',  ( -6.413839710158237013E-31, 0.0000000000000000000, -1.836996703606440502E-16 ) ) ;
#106 = DIRECTION ( 'NONE',  ( -3.491481338843133355E-15, 1.224646799147353207E-16, -1.000000000000000000 ) ) ;
#107 = CIRCLE ( 'NONE', #201, 1.499999999999999112 ) ;
#108 = PERSON_AND_ORGANIZATION ( #170, #205 ) ;
#109 = CARTESIAN_POINT ( 'NONE',  ( 2.793185071074506684E-14, 1.124819836996389785E-32, 8.000000000000000000 ) ) ;
#110 = ORIENTED_EDGE ( 'NONE', *, *, #102, .F. ) ;
#111 = ADVANCED_FACE ( 'NONE', ( #176 ), #159, .T. ) ;
#112 = CIRCLE ( 'NONE', #133, 0.9999999999999986677 ) ;
#113 = EDGE_CURVE ( 'NONE', #182, #182, #78, .T. ) ;
#114 = DIRECTION ( 'NONE',  ( -3.491481338843133355E-15, 1.224646799147353207E-16, -1.000000000000000000 ) ) ;
#115 = DIRECTION ( 'NONE',  ( 0.0000000000000000000, -1.000000000000000000, 0.0000000000000000000 ) ) ;
#116 = AXIS2_PLACEMENT_3D ( 'NONE', #209, #3, #192 ) ;
#117 =( NAMED_UNIT ( * ) PLANE_ANGLE_UNIT ( ) SI_UNIT ( $, .RADIAN. ) );
#118 = APPLICATION_PROTOCOL_DEFINITION ( 'international standard', 'config_control_design', 1994, #218 ) ;
#119 = AXIS2_PLACEMENT_3D ( 'NONE', #85, #149, #184 ) ;
#120 = CALENDAR_DATE ( 2021, 8, 12 ) ;
#121 = PERSON_AND_ORGANIZATION ( #170, #205 ) ;
#122 = APPLICATION_CONTEXT ( 'configuration controlled 3d designs of mechanical parts and assemblies' ) ;
#123 = APPROVAL_ROLE ( '' ) ;
#124 = FACE_OUTER_BOUND ( 'NONE', #175, .T. ) ;
#125 = PERSON_AND_ORGANIZATION ( #170, #205 ) ;
#126 = CYLINDRICAL_SURFACE ( 'NONE', #13, 0.9999999999999986677 ) ;
#127 = DIRECTION ( 'NONE',  ( -3.491481338843133355E-15, 1.224646799147353207E-16, -1.000000000000000000 ) ) ;
#128 = CALENDAR_DATE ( 2021, 8, 12 ) ;
#129 = CC_DESIGN_PERSON_AND_ORGANIZATION_ASSIGNMENT ( #108, #10, ( #49 ) ) ;
#130 = VERTEX_POINT ( 'NONE', #141 ) ;
#131 = CALENDAR_DATE ( 2021, 8, 12 ) ;
#132 = LOCAL_TIME ( 9, 40, 8.000000000000000000, #152 ) ;
#133 = AXIS2_PLACEMENT_3D ( 'NONE', #11, #217, #137 ) ;
#134 = FACE_OUTER_BOUND ( 'NONE', #16, .T. ) ;
#135 = DIRECTION ( 'NONE',  ( 0.0000000000000000000, 1.000000000000000000, 0.0000000000000000000 ) ) ;
#136 = EDGE_LOOP ( 'NONE', ( #51 ) ) ;
#137 = DIRECTION ( 'NONE',  ( -4.456761796588770537E-31, -1.000000000000000000, -1.276467311168695266E-16 ) ) ;
#138 = EDGE_LOOP ( 'NONE', ( #71 ) ) ;
#139 = ORIENTED_EDGE ( 'NONE', *, *, #185, .T. ) ;
#140 = DIRECTION ( 'NONE',  ( 0.0000000000000000000, 1.000000000000000000, 0.0000000000000000000 ) ) ;
#141 = CARTESIAN_POINT ( 'NONE',  ( 2.793185071074506684E-14, -1.000000000000000000, 8.000000000000000000 ) ) ;
#142 = CIRCLE ( 'NONE', #119, 0.9999999999999988898 ) ;
#143 = PERSON_AND_ORGANIZATION ( #170, #205 ) ;
#144 = PERSON_AND_ORGANIZATION ( #170, #205 ) ;
#145 = DATE_AND_TIME ( #213, #210 ) ;
#146 = PRODUCT_DEFINITION ( 'UNKNOWN', '', #49, #1 ) ;
#147 = APPROVAL_PERSON_ORGANIZATION ( #144, #66, #77 ) ;
#148 = APPROVAL_STATUS ( 'not_yet_approved' ) ;
#149 = DIRECTION ( 'NONE',  ( 3.491481338843133355E-15, -1.276467311168695266E-16, 1.000000000000000000 ) ) ;
#150 = PLANE ( 'NONE',  #31 ) ;
#151 = CC_DESIGN_PERSON_AND_ORGANIZATION_ASSIGNMENT ( #125, #87, ( #49 ) ) ;
#152 = COORDINATED_UNIVERSAL_TIME_OFFSET ( 1, 0, .AHEAD. ) ;
#153 = CC_DESIGN_APPROVAL ( #47, ( #49 ) ) ;
#154 = FACE_OUTER_BOUND ( 'NONE', #93, .T. ) ;
#155 = CIRCLE ( 'NONE', #183, 0.9999999999999988898 ) ;
#156 = DATE_TIME_ROLE ( 'classification_date' ) ;
#157 = FACE_OUTER_BOUND ( 'NONE', #204, .T. ) ;
#158 = ADVANCED_FACE ( 'NONE', ( #46 ), #100, .F. ) ;
#159 = PLANE ( 'NONE',  #174 ) ;
#160 = EDGE_LOOP ( 'NONE', ( #139 ) ) ;
#161 = EDGE_LOOP ( 'NONE', ( #53 ) ) ;
#162 = PLANE ( 'NONE',  #104 ) ;
#163 = APPROVAL_DATE_TIME ( #43, #47 ) ;
#164 = APPROVAL_PERSON_ORGANIZATION ( #215, #198, #123 ) ;
#165 = VERTEX_POINT ( 'NONE', #56 ) ;
#166 = APPLICATION_PROTOCOL_DEFINITION ( 'international standard', 'config_control_design', 1994, #122 ) ;
#167 = ADVANCED_FACE ( 'NONE', ( #200, #134 ), #45, .T. ) ;
#168 = DIRECTION ( 'NONE',  ( 3.491481338843133355E-15, -1.224646799147353207E-16, 1.000000000000000000 ) ) ;
#169 = DIRECTION ( 'NONE',  ( 0.0000000000000000000, -1.000000000000000000, 0.0000000000000000000 ) ) ;
#170 = PERSON ( 'UNSPECIFIED', 'UNSPECIFIED', 'UNSPECIFIED', ('UNSPECIFIED'), ('UNSPECIFIED'), ('UNSPECIFIED') ) ;
#171 = CARTESIAN_POINT ( 'NONE',  ( 1.326762908760390423E-13, 9.748438587302011502E-33, 38.00000000000000000 ) ) ;
#172 = PRODUCT_RELATED_PRODUCT_CATEGORY ( 'detail', '', ( #181 ) ) ;
#173 = CARTESIAN_POINT ( 'NONE',  ( 1.326762908760390423E-13, -4.653657836759941941E-15, 38.00000000000000000 ) ) ;
#174 = AXIS2_PLACEMENT_3D ( 'NONE', #109, #67, #29 ) ;
#175 = EDGE_LOOP ( 'NONE', ( #206 ) ) ;
#176 = FACE_OUTER_BOUND ( 'NONE', #221, .T. ) ;
#177 = ADVANCED_BREP_SHAPE_REPRESENTATION ( '372575', ( #36, #186, #116 ), #84 ) ;
#178 = CC_DESIGN_DATE_AND_TIME_ASSIGNMENT ( #19, #59, ( #146 ) ) ;
#179 = CONICAL_SURFACE ( 'NONE', #41, 1.300000000000000711, 0.7853981633974516097 ) ;
#180 = APPROVAL_ROLE ( '' ) ;
#181 = PRODUCT ( '372575', '372575', '', ( #195 ) ) ;
#182 = VERTEX_POINT ( 'NONE', #61 ) ;
#183 = AXIS2_PLACEMENT_3D ( 'NONE', #92, #190, #115 ) ;
#184 = DIRECTION ( 'NONE',  ( 0.0000000000000000000, -1.000000000000000000, 0.0000000000000000000 ) ) ;
#185 = EDGE_CURVE ( 'NONE', #165, #165, #142, .T. ) ;
#186 = MANIFOLD_SOLID_BREP ( 'Corps-Déplacer/Copier1[2]', #21 ) ;
#187 = ORIENTED_EDGE ( 'NONE', *, *, #42, .T. ) ;
#188 = LOCAL_TIME ( 9, 40, 8.000000000000000000, #212 ) ;
#189 = ORIENTED_EDGE ( 'NONE', *, *, #113, .T. ) ;
#190 = DIRECTION ( 'NONE',  ( 3.491481338843133355E-15, -1.276467311168695266E-16, 1.000000000000000000 ) ) ;
#191 = ADVANCED_FACE ( 'NONE', ( #124, #63 ), #126, .T. ) ;
#192 = DIRECTION ( 'NONE',  ( 1.000000000000000000, 0.0000000000000000000, 0.0000000000000000000 ) ) ;
#193 = FACE_OUTER_BOUND ( 'NONE', #138, .T. ) ;
#194 = ADVANCED_FACE ( 'NONE', ( #154 ), #150, .F. ) ;
#195 = MECHANICAL_CONTEXT ( 'NONE', #218, 'mechanical' ) ;
#196 = DATE_AND_TIME ( #128, #103 ) ;
#197 = CARTESIAN_POINT ( 'NONE',  ( 2.793185071074506684E-14, 1.124819836996389785E-32, 8.000000000000000000 ) ) ;
#198 = APPROVAL ( #101, 'UNSPECIFIED' ) ;
#199 = DIRECTION ( 'NONE',  ( 4.275831445896958607E-31, 1.000000000000000000, 1.224646799147353207E-16 ) ) ;
#200 = FACE_BOUND ( 'NONE', #160, .T. ) ;
#201 = AXIS2_PLACEMENT_3D ( 'NONE', #88, #65, #44 ) ;
#202 = ORIENTED_EDGE ( 'NONE', *, *, #207, .T. ) ;
#203 = CC_DESIGN_PERSON_AND_ORGANIZATION_ASSIGNMENT ( #83, #80, ( #181 ) ) ;
#204 = EDGE_LOOP ( 'NONE', ( #220 ) ) ;
#205 = ORGANIZATION ( 'UNSPECIFIED', 'UNSPECIFIED', '' ) ;
#206 = ORIENTED_EDGE ( 'NONE', *, *, #91, .T. ) ;
#207 = EDGE_CURVE ( 'NONE', #99, #99, #107, .T. ) ;
#208 = FACE_OUTER_BOUND ( 'NONE', #54, .T. ) ;
#209 = CARTESIAN_POINT ( 'NONE',  ( 0.0000000000000000000, 0.0000000000000000000, 0.0000000000000000000 ) ) ;
#210 = LOCAL_TIME ( 9, 40, 8.000000000000000000, #81 ) ;
#211 = AXIS2_PLACEMENT_3D ( 'NONE', #197, #168, #216 ) ;
#212 = COORDINATED_UNIVERSAL_TIME_OFFSET ( 1, 0, .AHEAD. ) ;
#213 = CALENDAR_DATE ( 2021, 8, 12 ) ;
#214 = PERSON_AND_ORGANIZATION_ROLE ( 'creator' ) ;
#215 = PERSON_AND_ORGANIZATION ( #170, #205 ) ;
#216 = DIRECTION ( 'NONE',  ( -4.275831445896958607E-31, -1.000000000000000000, -1.224646799147353207E-16 ) ) ;
#217 = DIRECTION ( 'NONE',  ( 3.491481338843133355E-15, -1.276467311168695266E-16, 1.000000000000000000 ) ) ;
#218 = APPLICATION_CONTEXT ( 'configuration controlled 3d designs of mechanical parts and assemblies' ) ;
#219 = SECURITY_CLASSIFICATION ( '', '', #89 ) ;
#220 = ORIENTED_EDGE ( 'NONE', *, *, #102, .T. ) ;
#221 = EDGE_LOOP ( 'NONE', ( #187 ) ) ;
#222 = ADVANCED_FACE ( 'NONE', ( #157, #193 ), #75, .T. ) ;
#223 = CARTESIAN_POINT ( 'NONE',  ( -2.137935315286761602E-31, 7.498867633981223393E-33, -6.123290110423860221E-17 ) ) ;
ENDSEC;
END-ISO-10303-21;
