ISO-10303-21;
HEADER;
FILE_DESCRIPTION (( 'STEP AP203' ),
    '1' );
FILE_NAME ('372574.step',
    '2021-12-08T08:40:07',
    ( '' ),
    ( '' ),
    'SwSTEP 2.0',
    'SolidWorks 2019',
    '' );
FILE_SCHEMA (( 'CONFIG_CONTROL_DESIGN' ));
ENDSEC;

DATA;
#1 = DATE_AND_TIME ( #187, #175 ) ;
#2 = CC_DESIGN_PERSON_AND_ORGANIZATION_ASSIGNMENT ( #38, #3, ( #151 ) ) ;
#3 = PERSON_AND_ORGANIZATION_ROLE ( 'creator' ) ;
#4 = AXIS2_PLACEMENT_3D ( 'NONE', #219, #128, #199 ) ;
#5 = CLOSED_SHELL ( 'NONE', ( #7, #136, #35, #211, #105 ) ) ;
#6 = CARTESIAN_POINT ( 'NONE',  ( 9.308377946195078733E-14, -3.403094278676150455E-15, 26.66025403784433223 ) ) ;
#7 = ADVANCED_FACE ( 'NONE', ( #74, #26 ), #10, .T. ) ;
#8 = APPLICATION_CONTEXT ( 'configuration controlled 3d designs of mechanical parts and assemblies' ) ;
#9 = DIRECTION ( 'NONE',  ( -4.456761796588771413E-31, -1.000000000000000000, -1.276467311168695019E-16 ) ) ;
#10 = CYLINDRICAL_SURFACE ( 'NONE', #166, 1.499999999999998668 ) ;
#11 = FACE_OUTER_BOUND ( 'NONE', #213, .T. ) ;
#12 = EDGE_CURVE ( 'NONE', #123, #123, #20, .T. ) ;
#13 = DIRECTION ( 'NONE',  ( 4.275831445896958607E-31, 1.000000000000000000, 1.224646799147353207E-16 ) ) ;
#14 = DATE_AND_TIME ( #217, #183 ) ;
#15 = AXIS2_PLACEMENT_3D ( 'NONE', #6, #173, #87 ) ;
#16 = ORIENTED_EDGE ( 'NONE', *, *, #61, .T. ) ;
#17 = FACE_OUTER_BOUND ( 'NONE', #126, .T. ) ;
#18 = VERTEX_POINT ( 'NONE', #179 ) ;
#19 = CALENDAR_DATE ( 2021, 8, 12 ) ;
#20 = CIRCLE ( 'NONE', #214, 1.499999999999998668 ) ;
#21 = PLANE ( 'NONE',  #171 ) ;
#22 = CC_DESIGN_PERSON_AND_ORGANIZATION_ASSIGNMENT ( #198, #185, ( #69 ) ) ;
#23 = DIRECTION ( 'NONE',  ( 3.491481338843133355E-15, -1.224646799147353207E-16, 1.000000000000000000 ) ) ;
#24 = SECURITY_CLASSIFICATION ( '', '', #36 ) ;
#25 = DIRECTION ( 'NONE',  ( 0.0000000000000000000, -1.000000000000000000, 0.0000000000000000000 ) ) ;
#26 = FACE_OUTER_BOUND ( 'NONE', #111, .T. ) ;
#27 = APPLICATION_PROTOCOL_DEFINITION ( 'international standard', 'config_control_design', 1994, #8 ) ;
#28 = FACE_OUTER_BOUND ( 'NONE', #140, .T. ) ;
#29 = VERTEX_POINT ( 'NONE', #78 ) ;
#30 = AXIS2_PLACEMENT_3D ( 'NONE', #178, #129, #164 ) ;
#31 = ORIENTED_EDGE ( 'NONE', *, *, #12, .F. ) ;
#32 = DATE_AND_TIME ( #45, #119 ) ;
#33 = APPLICATION_PROTOCOL_DEFINITION ( 'international standard', 'config_control_design', 1994, #220 ) ;
#34 = CONICAL_SURFACE ( 'NONE', #118, 1.299999999999999822, 0.7853981633974520538 ) ;
#35 = ADVANCED_FACE ( 'NONE', ( #17 ), #79, .F. ) ;
#36 = SECURITY_CLASSIFICATION_LEVEL ( 'unclassified' ) ;
#37 = PERSON_AND_ORGANIZATION ( #200, #196 ) ;
#38 = PERSON_AND_ORGANIZATION ( #200, #196 ) ;
#39 = DIRECTION ( 'NONE',  ( -3.491481338843133355E-15, 1.224646799147353207E-16, -1.000000000000000000 ) ) ;
#40 = CIRCLE ( 'NONE', #85, 0.9999999999999988898 ) ;
#41 = DIRECTION ( 'NONE',  ( -4.275831445896958607E-31, -1.000000000000000000, -1.224646799147353207E-16 ) ) ;
#42 = ORIENTED_EDGE ( 'NONE', *, *, #61, .F. ) ;
#43 = FACE_OUTER_BOUND ( 'NONE', #218, .T. ) ;
#44 = ORIENTED_EDGE ( 'NONE', *, *, #142, .F. ) ;
#45 = CALENDAR_DATE ( 2021, 8, 12 ) ;
#46 = EDGE_LOOP ( 'NONE', ( #197 ) ) ;
#47 = VERTEX_POINT ( 'NONE', #94 ) ;
#48 = DIRECTION ( 'NONE',  ( -4.275831445896958607E-31, -1.000000000000000000, -1.224646799147353207E-16 ) ) ;
#49 = MANIFOLD_SOLID_BREP ( 'Corps-Déplacer/Copier1[1]', #5 ) ;
#50 = CIRCLE ( 'NONE', #30, 0.9999999999999988898 ) ;
#51 = DATE_TIME_ROLE ( 'classification_date' ) ;
#52 = APPROVAL_PERSON_ORGANIZATION ( #167, #131, #149 ) ;
#53 = CARTESIAN_POINT ( 'NONE',  ( 2.793185071074506684E-14, 1.124819836996389785E-32, 8.000000000000000000 ) ) ;
#54 = LOCAL_TIME ( 9, 40, 7.000000000000000000, #117 ) ;
#55 = PLANE ( 'NONE',  #188 ) ;
#56 = FACE_OUTER_BOUND ( 'NONE', #177, .T. ) ;
#57 = ORIENTED_EDGE ( 'NONE', *, *, #100, .T. ) ;
#58 = VERTEX_POINT ( 'NONE', #172 ) ;
#59 = EDGE_LOOP ( 'NONE', ( #57 ) ) ;
#60 = COORDINATED_UNIVERSAL_TIME_OFFSET ( 1, 0, .AHEAD. ) ;
#61 = EDGE_CURVE ( 'NONE', #58, #58, #70, .T. ) ;
#62 = ORIENTED_EDGE ( 'NONE', *, *, #100, .F. ) ;
#63 = CARTESIAN_POINT ( 'NONE',  ( 0.0000000000000000000, 0.0000000000000000000, 0.0000000000000000000 ) ) ;
#64 = APPROVAL_STATUS ( 'not_yet_approved' ) ;
#65 =( GEOMETRIC_REPRESENTATION_CONTEXT ( 3 ) GLOBAL_UNCERTAINTY_ASSIGNED_CONTEXT ( ( #181 ) ) GLOBAL_UNIT_ASSIGNED_CONTEXT ( ( #81, #146, #96 ) ) REPRESENTATION_CONTEXT ( 'NONE', 'WORKASPACE' ) );
#66 = DIRECTION ( 'NONE',  ( 3.491481338843133355E-15, -1.224646799147353207E-16, 1.000000000000000000 ) ) ;
#67 = CARTESIAN_POINT ( 'NONE',  ( 2.793185071074506684E-14, -1.000000000000000000, 8.000000000000000000 ) ) ;
#68 = PERSON_AND_ORGANIZATION_ROLE ( 'classification_officer' ) ;
#69 = PRODUCT_DEFINITION ( 'UNKNOWN', '', #151, #169 ) ;
#70 = CIRCLE ( 'NONE', #141, 1.500000000000000000 ) ;
#71 = CC_DESIGN_PERSON_AND_ORGANIZATION_ASSIGNMENT ( #37, #189, ( #151 ) ) ;
#72 = DIRECTION ( 'NONE',  ( -4.275831445896958607E-31, -1.000000000000000000, -1.224646799147353207E-16 ) ) ;
#73 = DIRECTION ( 'NONE',  ( 0.0000000000000000000, -1.000000000000000000, 0.0000000000000000000 ) ) ;
#74 = FACE_OUTER_BOUND ( 'NONE', #184, .T. ) ;
#75 = APPROVAL_DATE_TIME ( #14, #82 ) ;
#76 = AXIS2_PLACEMENT_3D ( 'NONE', #84, #39, #153 ) ;
#77 = APPROVAL ( #202, 'UNSPECIFIED' ) ;
#78 = CARTESIAN_POINT ( 'NONE',  ( -3.618607013836511207E-32, -0.9999999999999986677, -1.036410240426918204E-17 ) ) ;
#79 = PLANE ( 'NONE',  #125 ) ;
#80 = CC_DESIGN_APPROVAL ( #131, ( #24 ) ) ;
#81 =( LENGTH_UNIT ( ) NAMED_UNIT ( * ) SI_UNIT ( .MILLI., .METRE. ) );
#82 = APPROVAL ( #64, 'UNSPECIFIED' ) ;
#83 = COORDINATED_UNIVERSAL_TIME_OFFSET ( 1, 0, .AHEAD. ) ;
#84 = CARTESIAN_POINT ( 'NONE',  ( 1.047444401652940007E-13, -3.673940397442059178E-15, 30.00000000000000000 ) ) ;
#85 = AXIS2_PLACEMENT_3D ( 'NONE', #191, #102, #73 ) ;
#86 = CARTESIAN_POINT ( 'NONE',  ( -2.137935315286761602E-31, 7.498867633981223393E-33, -6.123290110423860221E-17 ) ) ;
#87 = DIRECTION ( 'NONE',  ( 0.0000000000000000000, -1.000000000000000000, 0.0000000000000000000 ) ) ;
#88 = CC_DESIGN_DATE_AND_TIME_ASSIGNMENT ( #133, #51, ( #24 ) ) ;
#89 = CC_DESIGN_APPROVAL ( #77, ( #151 ) ) ;
#90 = CARTESIAN_POINT ( 'NONE',  ( -6.413839710158237013E-31, 0.0000000000000000000, -1.836996703606440502E-16 ) ) ;
#91 = CARTESIAN_POINT ( 'NONE',  ( 1.047444401652940007E-13, 9.748438587302018344E-33, 30.00000000000000000 ) ) ;
#92 = EDGE_LOOP ( 'NONE', ( #182 ) ) ;
#93 = DIRECTION ( 'NONE',  ( -3.491481338843133355E-15, 1.224646799147353207E-16, -1.000000000000000000 ) ) ;
#94 = CARTESIAN_POINT ( 'NONE',  ( 1.047444401652940007E-13, 1.299999999999996048, 30.00000000000000000 ) ) ;
#95 = CARTESIAN_POINT ( 'NONE',  ( 1.040461438975253740E-13, -3.649447461459112464E-15, 29.80000000000000071 ) ) ;
#96 =( NAMED_UNIT ( * ) SI_UNIT ( $, .STERADIAN. ) SOLID_ANGLE_UNIT ( ) );
#97 = COORDINATED_UNIVERSAL_TIME_OFFSET ( 1, 0, .AHEAD. ) ;
#98 = APPROVAL_PERSON_ORGANIZATION ( #162, #82, #186 ) ;
#99 = APPROVAL_DATE_TIME ( #1, #131 ) ;
#100 = EDGE_CURVE ( 'NONE', #18, #18, #50, .T. ) ;
#101 = CALENDAR_DATE ( 2021, 8, 12 ) ;
#102 = DIRECTION ( 'NONE',  ( 3.491481338843133355E-15, -1.276467311168695266E-16, 1.000000000000000000 ) ) ;
#103 = AXIS2_PLACEMENT_3D ( 'NONE', #106, #121, #135 ) ;
#104 = CYLINDRICAL_SURFACE ( 'NONE', #161, 0.9999999999999986677 ) ;
#105 = ADVANCED_FACE ( 'NONE', ( #28 ), #55, .F. ) ;
#106 = CARTESIAN_POINT ( 'NONE',  ( 4.094901095205113395E-31, -3.841940660073961603E-32, 1.172826287126001781E-16 ) ) ;
#107 = CLOSED_SHELL ( 'NONE', ( #154, #223, #195 ) ) ;
#108 = ORIENTED_EDGE ( 'NONE', *, *, #148, .F. ) ;
#109 = CC_DESIGN_DATE_AND_TIME_ASSIGNMENT ( #32, #112, ( #69 ) ) ;
#110 = EDGE_LOOP ( 'NONE', ( #108 ) ) ;
#111 = EDGE_LOOP ( 'NONE', ( #31 ) ) ;
#112 = DATE_TIME_ROLE ( 'creation_date' ) ;
#113 = DIRECTION ( 'NONE',  ( 4.275831445896958607E-31, 1.000000000000000000, 1.224646799147353207E-16 ) ) ;
#114 = PRODUCT_DEFINITION_SHAPE ( 'NONE', 'NONE',  #69 ) ;
#115 = PERSON_AND_ORGANIZATION_ROLE ( 'design_owner' ) ;
#116 = AXIS2_PLACEMENT_3D ( 'NONE', #86, #23, #72 ) ;
#117 = COORDINATED_UNIVERSAL_TIME_OFFSET ( 1, 0, .AHEAD. ) ;
#118 = AXIS2_PLACEMENT_3D ( 'NONE', #222, #203, #138 ) ;
#119 = LOCAL_TIME ( 9, 40, 7.000000000000000000, #60 ) ;
#120 = FACE_BOUND ( 'NONE', #59, .T. ) ;
#121 = DIRECTION ( 'NONE',  ( 3.491481338843133355E-15, -1.276467311168695266E-16, 1.000000000000000000 ) ) ;
#122 = CARTESIAN_POINT ( 'NONE',  ( 2.793185071074506684E-14, 1.124819836996389785E-32, 8.000000000000000000 ) ) ;
#123 = VERTEX_POINT ( 'NONE', #139 ) ;
#124 = ORIENTED_EDGE ( 'NONE', *, *, #148, .T. ) ;
#125 = AXIS2_PLACEMENT_3D ( 'NONE', #91, #143, #13 ) ;
#126 = EDGE_LOOP ( 'NONE', ( #44 ) ) ;
#127 = APPROVAL_ROLE ( '' ) ;
#128 = DIRECTION ( 'NONE',  ( 0.0000000000000000000, 0.0000000000000000000, 1.000000000000000000 ) ) ;
#129 = DIRECTION ( 'NONE',  ( 3.491481338843133355E-15, -1.276467311168695266E-16, 1.000000000000000000 ) ) ;
#130 = PERSON_AND_ORGANIZATION ( #200, #196 ) ;
#131 = APPROVAL ( #168, 'UNSPECIFIED' ) ;
#132 = FACE_BOUND ( 'NONE', #46, .T. ) ;
#133 = DATE_AND_TIME ( #101, #147 ) ;
#134 = CC_DESIGN_APPROVAL ( #82, ( #69 ) ) ;
#135 = DIRECTION ( 'NONE',  ( -4.456761796588770537E-31, -1.000000000000000000, -1.276467311168695266E-16 ) ) ;
#136 = ADVANCED_FACE ( 'NONE', ( #145, #132 ), #34, .T. ) ;
#137 = FACE_OUTER_BOUND ( 'NONE', #92, .T. ) ;
#138 = DIRECTION ( 'NONE',  ( 0.0000000000000000000, 1.000000000000000000, 0.0000000000000000000 ) ) ;
#139 = CARTESIAN_POINT ( 'NONE',  ( 3.444704358586563510E-14, -1.500000000000000000, 9.866025403784433934 ) ) ;
#140 = EDGE_LOOP ( 'NONE', ( #62 ) ) ;
#141 = AXIS2_PLACEMENT_3D ( 'NONE', #95, #176, #215 ) ;
#142 = EDGE_CURVE ( 'NONE', #47, #47, #155, .T. ) ;
#143 = DIRECTION ( 'NONE',  ( -3.491481338843133355E-15, 1.224646799147353207E-16, -1.000000000000000000 ) ) ;
#144 = PRODUCT ( '372574', '372574', '', ( #165 ) ) ;
#145 = FACE_OUTER_BOUND ( 'NONE', #160, .T. ) ;
#146 =( NAMED_UNIT ( * ) PLANE_ANGLE_UNIT ( ) SI_UNIT ( $, .RADIAN. ) );
#147 = LOCAL_TIME ( 9, 40, 7.000000000000000000, #83 ) ;
#148 = EDGE_CURVE ( 'NONE', #159, #159, #40, .T. ) ;
#149 = APPROVAL_ROLE ( '' ) ;
#150 = APPROVAL_DATE_TIME ( #190, #77 ) ;
#151 = PRODUCT_DEFINITION_FORMATION_WITH_SPECIFIED_SOURCE ( 'ANY', '', #144, .NOT_KNOWN. ) ;
#152 = COORDINATED_UNIVERSAL_TIME_OFFSET ( 1, 0, .AHEAD. ) ;
#153 = DIRECTION ( 'NONE',  ( 0.0000000000000000000, 1.000000000000000000, 0.0000000000000000000 ) ) ;
#154 = ADVANCED_FACE ( 'NONE', ( #56 ), #21, .T. ) ;
#155 = CIRCLE ( 'NONE', #76, 1.299999999999999822 ) ;
#156 = PLANE ( 'NONE',  #116 ) ;
#157 = ORIENTED_EDGE ( 'NONE', *, *, #12, .T. ) ;
#158 = DIRECTION ( 'NONE',  ( 3.491481338843133355E-15, -1.276467311168695266E-16, 1.000000000000000000 ) ) ;
#159 = VERTEX_POINT ( 'NONE', #67 ) ;
#160 = EDGE_LOOP ( 'NONE', ( #42 ) ) ;
#161 = AXIS2_PLACEMENT_3D ( 'NONE', #90, #158, #9 ) ;
#162 = PERSON_AND_ORGANIZATION ( #200, #196 ) ;
#163 = CARTESIAN_POINT ( 'NONE',  ( 3.444704358586563510E-14, -1.259365891909075479E-15, 9.866025403784433934 ) ) ;
#164 = DIRECTION ( 'NONE',  ( 0.0000000000000000000, -1.000000000000000000, 0.0000000000000000000 ) ) ;
#165 = MECHANICAL_CONTEXT ( 'NONE', #220, 'mechanical' ) ;
#166 = AXIS2_PLACEMENT_3D ( 'NONE', #63, #93, #113 ) ;
#167 = PERSON_AND_ORGANIZATION ( #200, #196 ) ;
#168 = APPROVAL_STATUS ( 'not_yet_approved' ) ;
#169 = DESIGN_CONTEXT ( 'detailed design', #8, 'design' ) ;
#170 = CC_DESIGN_PERSON_AND_ORGANIZATION_ASSIGNMENT ( #208, #68, ( #24 ) ) ;
#171 = AXIS2_PLACEMENT_3D ( 'NONE', #53, #194, #41 ) ;
#172 = CARTESIAN_POINT ( 'NONE',  ( 1.040461438975253740E-13, 1.499999999999996447, 29.80000000000000071 ) ) ;
#173 = DIRECTION ( 'NONE',  ( 3.491481338843133355E-15, -1.276467311168695266E-16, 1.000000000000000000 ) ) ;
#174 = ADVANCED_BREP_SHAPE_REPRESENTATION ( '372574', ( #49, #205, #4 ), #65 ) ;
#175 = LOCAL_TIME ( 9, 40, 7.000000000000000000, #152 ) ;
#176 = DIRECTION ( 'NONE',  ( -3.491481338843133355E-15, 1.224646799147353207E-16, -1.000000000000000000 ) ) ;
#177 = EDGE_LOOP ( 'NONE', ( #124 ) ) ;
#178 = CARTESIAN_POINT ( 'NONE',  ( 2.793185071074506684E-14, -1.021173848934956212E-15, 8.000000000000000000 ) ) ;
#179 = CARTESIAN_POINT ( 'NONE',  ( 2.793185071074506684E-14, -1.000000000000000000, 8.000000000000000000 ) ) ;
#180 = PRODUCT_RELATED_PRODUCT_CATEGORY ( 'detail', '', ( #144 ) ) ;
#181 = UNCERTAINTY_MEASURE_WITH_UNIT (LENGTH_MEASURE( 1.000000000000000082E-05 ), #81, 'distance_accuracy_value', 'NONE');
#182 = ORIENTED_EDGE ( 'NONE', *, *, #204, .T. ) ;
#183 = LOCAL_TIME ( 9, 40, 7.000000000000000000, #97 ) ;
#184 = EDGE_LOOP ( 'NONE', ( #16 ) ) ;
#185 = PERSON_AND_ORGANIZATION_ROLE ( 'creator' ) ;
#186 = APPROVAL_ROLE ( '' ) ;
#187 = CALENDAR_DATE ( 2021, 8, 12 ) ;
#188 = AXIS2_PLACEMENT_3D ( 'NONE', #122, #66, #48 ) ;
#189 = PERSON_AND_ORGANIZATION_ROLE ( 'design_supplier' ) ;
#190 = DATE_AND_TIME ( #19, #54 ) ;
#191 = CARTESIAN_POINT ( 'NONE',  ( 2.793185071074506684E-14, -1.021173848934956212E-15, 8.000000000000000000 ) ) ;
#192 = APPROVAL_PERSON_ORGANIZATION ( #130, #77, #127 ) ;
#193 = CC_DESIGN_PERSON_AND_ORGANIZATION_ASSIGNMENT ( #216, #115, ( #144 ) ) ;
#194 = DIRECTION ( 'NONE',  ( 3.491481338843133355E-15, -1.224646799147353207E-16, 1.000000000000000000 ) ) ;
#195 = ADVANCED_FACE ( 'NONE', ( #43 ), #156, .F. ) ;
#196 = ORGANIZATION ( 'UNSPECIFIED', 'UNSPECIFIED', '' ) ;
#197 = ORIENTED_EDGE ( 'NONE', *, *, #142, .T. ) ;
#198 = PERSON_AND_ORGANIZATION ( #200, #196 ) ;
#199 = DIRECTION ( 'NONE',  ( 1.000000000000000000, 0.0000000000000000000, 0.0000000000000000000 ) ) ;
#200 = PERSON ( 'UNSPECIFIED', 'UNSPECIFIED', 'UNSPECIFIED', ('UNSPECIFIED'), ('UNSPECIFIED'), ('UNSPECIFIED') ) ;
#201 = DIRECTION ( 'NONE',  ( -3.491481338843133355E-15, 1.276467311168695266E-16, -1.000000000000000000 ) ) ;
#202 = APPROVAL_STATUS ( 'not_yet_approved' ) ;
#203 = DIRECTION ( 'NONE',  ( -3.491481338843133355E-15, 1.224646799147353207E-16, -1.000000000000000000 ) ) ;
#204 = EDGE_CURVE ( 'NONE', #29, #29, #207, .T. ) ;
#205 = MANIFOLD_SOLID_BREP ( 'Corps-Déplacer/Copier1[2]', #107 ) ;
#206 = SHAPE_DEFINITION_REPRESENTATION ( #114, #174 ) ;
#207 = CIRCLE ( 'NONE', #103, 0.9999999999999986677 ) ;
#208 = PERSON_AND_ORGANIZATION ( #200, #196 ) ;
#209 = CC_DESIGN_SECURITY_CLASSIFICATION ( #24, ( #151 ) ) ;
#210 = FACE_OUTER_BOUND ( 'NONE', #110, .T. ) ;
#211 = ADVANCED_FACE ( 'NONE', ( #120, #11 ), #221, .T. ) ;
#212 = ORIENTED_EDGE ( 'NONE', *, *, #204, .F. ) ;
#213 = EDGE_LOOP ( 'NONE', ( #157 ) ) ;
#214 = AXIS2_PLACEMENT_3D ( 'NONE', #163, #201, #25 ) ;
#215 = DIRECTION ( 'NONE',  ( 0.0000000000000000000, 1.000000000000000000, 0.0000000000000000000 ) ) ;
#216 = PERSON_AND_ORGANIZATION ( #200, #196 ) ;
#217 = CALENDAR_DATE ( 2021, 8, 12 ) ;
#218 = EDGE_LOOP ( 'NONE', ( #212 ) ) ;
#219 = CARTESIAN_POINT ( 'NONE',  ( 0.0000000000000000000, 0.0000000000000000000, 0.0000000000000000000 ) ) ;
#220 = APPLICATION_CONTEXT ( 'configuration controlled 3d designs of mechanical parts and assemblies' ) ;
#221 = CONICAL_SURFACE ( 'NONE', #15, 5.999999999999999112, 0.2617993877991501850 ) ;
#222 = CARTESIAN_POINT ( 'NONE',  ( 1.047444401652940007E-13, -3.673940397442059178E-15, 30.00000000000000000 ) ) ;
#223 = ADVANCED_FACE ( 'NONE', ( #137, #210 ), #104, .T. ) ;
ENDSEC;
END-ISO-10303-21;
