ISO-10303-21;
HEADER;
FILE_DESCRIPTION (( 'STEP AP203' ),
    '1' );
FILE_NAME ('372573.step',
    '2021-12-08T08:40:07',
    ( '' ),
    ( '' ),
    'SwSTEP 2.0',
    'SolidWorks 2019',
    '' );
FILE_SCHEMA (( 'CONFIG_CONTROL_DESIGN' ));
ENDSEC;

DATA;
#1 = AXIS2_PLACEMENT_3D ( 'NONE', #120, #201, #57 ) ;
#2 = APPROVAL ( #61, 'UNSPECIFIED' ) ;
#3 = APPLICATION_CONTEXT ( 'configuration controlled 3d designs of mechanical parts and assemblies' ) ;
#4 = EDGE_LOOP ( 'NONE', ( #153 ) ) ;
#5 = ADVANCED_BREP_SHAPE_REPRESENTATION ( '372573', ( #145, #87, #1 ), #63 ) ;
#6 = CARTESIAN_POINT ( 'NONE',  ( 1.047444401652940007E-13, 5.999039130647347640E-33, 30.00000000000000000 ) ) ;
#7 = PLANE ( 'NONE',  #202 ) ;
#8 = VERTEX_POINT ( 'NONE', #19 ) ;
#9 = CYLINDRICAL_SURFACE ( 'NONE', #52, 0.9999999999999950040 ) ;
#10 = COORDINATED_UNIVERSAL_TIME_OFFSET ( 1, 0, .AHEAD. ) ;
#11 = APPROVAL_ROLE ( '' ) ;
#12 = APPROVAL_STATUS ( 'not_yet_approved' ) ;
#13 = LOCAL_TIME ( 9, 40, 7.000000000000000000, #14 ) ;
#14 = COORDINATED_UNIVERSAL_TIME_OFFSET ( 1, 0, .AHEAD. ) ;
#15 = CIRCLE ( 'NONE', #64, 0.9999999999999926725 ) ;
#16 = CIRCLE ( 'NONE', #130, 0.9999999999999937828 ) ;
#17 = LOCAL_TIME ( 9, 40, 7.000000000000000000, #10 ) ;
#18 = PRODUCT_RELATED_PRODUCT_CATEGORY ( 'detail', '', ( #72 ) ) ;
#19 = CARTESIAN_POINT ( 'NONE',  ( 2.793185071074506684E-14, 0.9999999999999926725, 8.000000000000000000 ) ) ;
#20 = DIRECTION ( 'NONE',  ( 3.491481338843133355E-15, -1.224646799147353207E-16, 1.000000000000000000 ) ) ;
#21 = CARTESIAN_POINT ( 'NONE',  ( 1.047444401652940007E-13, 0.7999999999999927169, 30.00000000000000000 ) ) ;
#22 = APPLICATION_CONTEXT ( 'configuration controlled 3d designs of mechanical parts and assemblies' ) ;
#23 = CARTESIAN_POINT ( 'NONE',  ( 2.793185071074506684E-14, -9.797174393178825657E-16, 8.000000000000000000 ) ) ;
#24 = ORGANIZATION ( 'UNSPECIFIED', 'UNSPECIFIED', '' ) ;
#25 = AXIS2_PLACEMENT_3D ( 'NONE', #39, #118, #75 ) ;
#26 = CARTESIAN_POINT ( 'NONE',  ( 0.0000000000000000000, 0.0000000000000000000, 0.0000000000000000000 ) ) ;
#27 = CC_DESIGN_APPROVAL ( #159, ( #184 ) ) ;
#28 = DATE_AND_TIME ( #169, #17 ) ;
#29 = EDGE_LOOP ( 'NONE', ( #203 ) ) ;
#30 = APPROVAL_DATE_TIME ( #44, #159 ) ;
#31 = CARTESIAN_POINT ( 'NONE',  ( -3.206853992084413010E-31, 1.124812964929191460E-32, -9.184794878917987693E-17 ) ) ;
#32 = DIRECTION ( 'NONE',  ( -3.491481338843133355E-15, 1.224646799147353207E-16, -1.000000000000000000 ) ) ;
#33 = CC_DESIGN_APPROVAL ( #189, ( #200 ) ) ;
#34 = ADVANCED_FACE ( 'NONE', ( #62 ), #172, .F. ) ;
#35 = EDGE_LOOP ( 'NONE', ( #199 ) ) ;
#36 = PLANE ( 'NONE',  #92 ) ;
#37 = FACE_BOUND ( 'NONE', #35, .T. ) ;
#38 = CC_DESIGN_PERSON_AND_ORGANIZATION_ASSIGNMENT ( #99, #77, ( #184 ) ) ;
#39 = CARTESIAN_POINT ( 'NONE',  ( 2.793185071074506684E-14, 7.498798913309223722E-33, 8.000000000000000000 ) ) ;
#40 = DIRECTION ( 'NONE',  ( -3.491481338843133355E-15, 1.224646799147353207E-16, -1.000000000000000000 ) ) ;
#41 = APPROVAL_DATE_TIME ( #95, #2 ) ;
#42 = CALENDAR_DATE ( 2021, 8, 12 ) ;
#43 = APPROVAL_DATE_TIME ( #28, #189 ) ;
#44 = DATE_AND_TIME ( #122, #86 ) ;
#45 = EDGE_LOOP ( 'NONE', ( #187 ) ) ;
#46 = CARTESIAN_POINT ( 'NONE',  ( -6.413707984168826019E-31, 2.249625929858382919E-32, -1.836958975783597539E-16 ) ) ;
#47 = CIRCLE ( 'NONE', #85, 0.9999999999999963363 ) ;
#48 = CC_DESIGN_PERSON_AND_ORGANIZATION_ASSIGNMENT ( #152, #150, ( #200 ) ) ;
#49 = DIRECTION ( 'NONE',  ( -3.491481338843133355E-15, 1.224646799147353207E-16, -1.000000000000000000 ) ) ;
#50 = CONICAL_SURFACE ( 'NONE', #167, 0.7999999999999963807, 0.7853981633974512766 ) ;
#51 = DIRECTION ( 'NONE',  ( 0.0000000000000000000, 1.000000000000000000, 0.0000000000000000000 ) ) ;
#52 = AXIS2_PLACEMENT_3D ( 'NONE', #115, #161, #175 ) ;
#53 = VERTEX_POINT ( 'NONE', #117 ) ;
#54 = PLANE ( 'NONE',  #25 ) ;
#55 = DIRECTION ( 'NONE',  ( 0.0000000000000000000, 1.000000000000000000, 0.0000000000000000000 ) ) ;
#56 = EDGE_CURVE ( 'NONE', #53, #53, #15, .T. ) ;
#57 = DIRECTION ( 'NONE',  ( 1.000000000000000000, 0.0000000000000000000, 0.0000000000000000000 ) ) ;
#58 = CIRCLE ( 'NONE', #139, 0.9999999999999937828 ) ;
#59 = COORDINATED_UNIVERSAL_TIME_OFFSET ( 1, 0, .AHEAD. ) ;
#60 = DATE_AND_TIME ( #42, #13 ) ;
#61 = APPROVAL_STATUS ( 'not_yet_approved' ) ;
#62 = FACE_OUTER_BOUND ( 'NONE', #4, .T. ) ;
#63 =( GEOMETRIC_REPRESENTATION_CONTEXT ( 3 ) GLOBAL_UNCERTAINTY_ASSIGNED_CONTEXT ( ( #170 ) ) GLOBAL_UNIT_ASSIGNED_CONTEXT ( ( #119, #128, #106 ) ) REPRESENTATION_CONTEXT ( 'NONE', 'WORKASPACE' ) );
#64 = AXIS2_PLACEMENT_3D ( 'NONE', #46, #32, #158 ) ;
#65 = ADVANCED_FACE ( 'NONE', ( #144 ), #7, .F. ) ;
#66 = EDGE_LOOP ( 'NONE', ( #123 ) ) ;
#67 = APPROVAL_PERSON_ORGANIZATION ( #96, #159, #11 ) ;
#68 = ORIENTED_EDGE ( 'NONE', *, *, #78, .T. ) ;
#69 = DIRECTION ( 'NONE',  ( -4.275831445896958607E-31, -1.000000000000000000, -1.224646799147353207E-16 ) ) ;
#70 = CC_DESIGN_APPROVAL ( #2, ( #177 ) ) ;
#71 = DIRECTION ( 'NONE',  ( 4.275831445896958607E-31, 1.000000000000000000, 1.224646799147353207E-16 ) ) ;
#72 = PRODUCT ( '372573', '372573', '', ( #79 ) ) ;
#73 = ADVANCED_FACE ( 'NONE', ( #176 ), #54, .T. ) ;
#74 = DIRECTION ( 'NONE',  ( -3.491481338843133355E-15, 1.224646799147353207E-16, -1.000000000000000000 ) ) ;
#75 = DIRECTION ( 'NONE',  ( -4.275831445896958607E-31, -1.000000000000000000, -1.224646799147353207E-16 ) ) ;
#76 = PERSON_AND_ORGANIZATION ( #166, #24 ) ;
#77 = PERSON_AND_ORGANIZATION_ROLE ( 'creator' ) ;
#78 = EDGE_CURVE ( 'NONE', #8, #8, #58, .T. ) ;
#79 = MECHANICAL_CONTEXT ( 'NONE', #3, 'mechanical' ) ;
#80 = PRODUCT_DEFINITION_SHAPE ( 'NONE', 'NONE',  #184 ) ;
#81 = EDGE_LOOP ( 'NONE', ( #156 ) ) ;
#82 = LOCAL_TIME ( 9, 40, 7.000000000000000000, #171 ) ;
#83 = PERSON_AND_ORGANIZATION ( #166, #24 ) ;
#84 = EDGE_LOOP ( 'NONE', ( #127 ) ) ;
#85 = AXIS2_PLACEMENT_3D ( 'NONE', #143, #103, #93 ) ;
#86 = LOCAL_TIME ( 9, 40, 7.000000000000000000, #59 ) ;
#87 = MANIFOLD_SOLID_BREP ( 'Corps-Déplacer/Copier1[2]', #107 ) ;
#88 = DIRECTION ( 'NONE',  ( 0.0000000000000000000, 1.000000000000000000, 0.0000000000000000000 ) ) ;
#89 = CIRCLE ( 'NONE', #114, 0.7999999999999963807 ) ;
#90 = FACE_OUTER_BOUND ( 'NONE', #84, .T. ) ;
#91 = CARTESIAN_POINT ( 'NONE',  ( 2.793185071074506684E-14, 0.9999999999999926725, 8.000000000000000000 ) ) ;
#92 = AXIS2_PLACEMENT_3D ( 'NONE', #6, #102, #129 ) ;
#93 = DIRECTION ( 'NONE',  ( 0.0000000000000000000, 1.000000000000000000, 0.0000000000000000000 ) ) ;
#94 = CARTESIAN_POINT ( 'NONE',  ( 1.047444401652940007E-13, -3.673940397442059178E-15, 30.00000000000000000 ) ) ;
#95 = DATE_AND_TIME ( #183, #82 ) ;
#96 = PERSON_AND_ORGANIZATION ( #166, #24 ) ;
#97 = PERSON_AND_ORGANIZATION ( #166, #24 ) ;
#98 = EDGE_LOOP ( 'NONE', ( #185 ) ) ;
#99 = PERSON_AND_ORGANIZATION ( #166, #24 ) ;
#100 = ADVANCED_FACE ( 'NONE', ( #90, #179 ), #131, .T. ) ;
#101 = PERSON_AND_ORGANIZATION_ROLE ( 'creator' ) ;
#102 = DIRECTION ( 'NONE',  ( -3.491481338843133355E-15, 1.224646799147353207E-16, -1.000000000000000000 ) ) ;
#103 = DIRECTION ( 'NONE',  ( -3.491481338843133355E-15, 1.224646799147353207E-16, -1.000000000000000000 ) ) ;
#104 = CARTESIAN_POINT ( 'NONE',  ( 2.793185071074506684E-14, -9.797174393178825657E-16, 8.000000000000000000 ) ) ;
#105 = DIRECTION ( 'NONE',  ( -3.491481338843133355E-15, 1.224646799147353207E-16, -1.000000000000000000 ) ) ;
#106 =( NAMED_UNIT ( * ) SI_UNIT ( $, .STERADIAN. ) SOLID_ANGLE_UNIT ( ) );
#107 = CLOSED_SHELL ( 'NONE', ( #34, #100, #73 ) ) ;
#108 = COORDINATED_UNIVERSAL_TIME_OFFSET ( 1, 0, .AHEAD. ) ;
#109 = PERSON_AND_ORGANIZATION ( #166, #24 ) ;
#110 = APPROVAL_PERSON_ORGANIZATION ( #109, #189, #121 ) ;
#111 = SECURITY_CLASSIFICATION_LEVEL ( 'unclassified' ) ;
#112 = EDGE_LOOP ( 'NONE', ( #68 ) ) ;
#113 = ORIENTED_EDGE ( 'NONE', *, *, #180, .T. ) ;
#114 = AXIS2_PLACEMENT_3D ( 'NONE', #116, #105, #163 ) ;
#115 = CARTESIAN_POINT ( 'NONE',  ( 0.0000000000000000000, 0.0000000000000000000, 0.0000000000000000000 ) ) ;
#116 = CARTESIAN_POINT ( 'NONE',  ( 1.047444401652940007E-13, -3.673940397442059178E-15, 30.00000000000000000 ) ) ;
#117 = CARTESIAN_POINT ( 'NONE',  ( -2.137876538271898504E-31, 0.9999999999999926725, -6.123121766362532060E-17 ) ) ;
#118 = DIRECTION ( 'NONE',  ( 3.491481338843133355E-15, -1.224646799147353207E-16, 1.000000000000000000 ) ) ;
#119 =( LENGTH_UNIT ( ) NAMED_UNIT ( * ) SI_UNIT ( .MILLI., .METRE. ) );
#120 = CARTESIAN_POINT ( 'NONE',  ( 0.0000000000000000000, 0.0000000000000000000, 0.0000000000000000000 ) ) ;
#121 = APPROVAL_ROLE ( '' ) ;
#122 = CALENDAR_DATE ( 2021, 8, 12 ) ;
#123 = ORIENTED_EDGE ( 'NONE', *, *, #180, .F. ) ;
#124 = DIRECTION ( 'NONE',  ( -4.275831445896958607E-31, -1.000000000000000000, -1.224646799147353207E-16 ) ) ;
#125 = EDGE_CURVE ( 'NONE', #162, #162, #89, .T. ) ;
#126 = AXIS2_PLACEMENT_3D ( 'NONE', #31, #140, #124 ) ;
#127 = ORIENTED_EDGE ( 'NONE', *, *, #56, .F. ) ;
#128 =( NAMED_UNIT ( * ) PLANE_ANGLE_UNIT ( ) SI_UNIT ( $, .RADIAN. ) );
#129 = DIRECTION ( 'NONE',  ( 4.275831445896958607E-31, 1.000000000000000000, 1.224646799147353207E-16 ) ) ;
#130 = AXIS2_PLACEMENT_3D ( 'NONE', #23, #165, #88 ) ;
#131 = CYLINDRICAL_SURFACE ( 'NONE', #196, 0.9999999999999931166 ) ;
#132 = CARTESIAN_POINT ( 'NONE',  ( 2.793185071074506684E-14, 7.498798913309223722E-33, 8.000000000000000000 ) ) ;
#133 = ADVANCED_FACE ( 'NONE', ( #190, #37 ), #50, .T. ) ;
#134 = DATE_AND_TIME ( #168, #191 ) ;
#135 = PERSON_AND_ORGANIZATION ( #166, #24 ) ;
#136 = CC_DESIGN_PERSON_AND_ORGANIZATION_ASSIGNMENT ( #76, #181, ( #72 ) ) ;
#137 = APPROVAL_STATUS ( 'not_yet_approved' ) ;
#138 = EDGE_LOOP ( 'NONE', ( #113 ) ) ;
#139 = AXIS2_PLACEMENT_3D ( 'NONE', #104, #40, #55 ) ;
#140 = DIRECTION ( 'NONE',  ( 3.491481338843133355E-15, -1.224646799147353207E-16, 1.000000000000000000 ) ) ;
#141 = CC_DESIGN_PERSON_AND_ORGANIZATION_ASSIGNMENT ( #97, #154, ( #177 ) ) ;
#142 = VERTEX_POINT ( 'NONE', #178 ) ;
#143 = CARTESIAN_POINT ( 'NONE',  ( 1.040461438975253740E-13, -3.649447461459112464E-15, 29.80000000000000071 ) ) ;
#144 = FACE_OUTER_BOUND ( 'NONE', #138, .T. ) ;
#145 = MANIFOLD_SOLID_BREP ( 'Corps-Déplacer/Copier1[1]', #147 ) ;
#146 = FACE_OUTER_BOUND ( 'NONE', #81, .T. ) ;
#147 = CLOSED_SHELL ( 'NONE', ( #65, #188, #133, #192 ) ) ;
#148 = CC_DESIGN_PERSON_AND_ORGANIZATION_ASSIGNMENT ( #83, #101, ( #177 ) ) ;
#149 = FACE_OUTER_BOUND ( 'NONE', #66, .T. ) ;
#150 = PERSON_AND_ORGANIZATION_ROLE ( 'classification_officer' ) ;
#151 = APPLICATION_PROTOCOL_DEFINITION ( 'international standard', 'config_control_design', 1994, #3 ) ;
#152 = PERSON_AND_ORGANIZATION ( #166, #24 ) ;
#153 = ORIENTED_EDGE ( 'NONE', *, *, #56, .T. ) ;
#154 = PERSON_AND_ORGANIZATION_ROLE ( 'design_supplier' ) ;
#155 = APPROVAL_PERSON_ORGANIZATION ( #135, #2, #197 ) ;
#156 = ORIENTED_EDGE ( 'NONE', *, *, #173, .T. ) ;
#157 = CC_DESIGN_DATE_AND_TIME_ASSIGNMENT ( #134, #195, ( #184 ) ) ;
#158 = DIRECTION ( 'NONE',  ( 4.275831445896958607E-31, 1.000000000000000000, 1.224646799147353207E-16 ) ) ;
#159 = APPROVAL ( #137, 'UNSPECIFIED' ) ;
#160 = FACE_OUTER_BOUND ( 'NONE', #45, .T. ) ;
#161 = DIRECTION ( 'NONE',  ( -3.491481338843133355E-15, 1.224646799147353207E-16, -1.000000000000000000 ) ) ;
#162 = VERTEX_POINT ( 'NONE', #21 ) ;
#163 = DIRECTION ( 'NONE',  ( 0.0000000000000000000, 1.000000000000000000, 0.0000000000000000000 ) ) ;
#164 = CC_DESIGN_DATE_AND_TIME_ASSIGNMENT ( #60, #198, ( #200 ) ) ;
#165 = DIRECTION ( 'NONE',  ( -3.491481338843133355E-15, 1.224646799147353207E-16, -1.000000000000000000 ) ) ;
#166 = PERSON ( 'UNSPECIFIED', 'UNSPECIFIED', 'UNSPECIFIED', ('UNSPECIFIED'), ('UNSPECIFIED'), ('UNSPECIFIED') ) ;
#167 = AXIS2_PLACEMENT_3D ( 'NONE', #94, #49, #51 ) ;
#168 = CALENDAR_DATE ( 2021, 8, 12 ) ;
#169 = CALENDAR_DATE ( 2021, 8, 12 ) ;
#170 = UNCERTAINTY_MEASURE_WITH_UNIT (LENGTH_MEASURE( 1.000000000000000082E-05 ), #119, 'distance_accuracy_value', 'NONE');
#171 = COORDINATED_UNIVERSAL_TIME_OFFSET ( 1, 0, .AHEAD. ) ;
#172 = PLANE ( 'NONE',  #126 ) ;
#173 = EDGE_CURVE ( 'NONE', #142, #142, #47, .T. ) ;
#174 = DESIGN_CONTEXT ( 'detailed design', #22, 'design' ) ;
#175 = DIRECTION ( 'NONE',  ( 4.275831445896958607E-31, 1.000000000000000000, 1.224646799147353207E-16 ) ) ;
#176 = FACE_OUTER_BOUND ( 'NONE', #98, .T. ) ;
#177 = PRODUCT_DEFINITION_FORMATION_WITH_SPECIFIED_SOURCE ( 'ANY', '', #72, .NOT_KNOWN. ) ;
#178 = CARTESIAN_POINT ( 'NONE',  ( 1.040461438975253740E-13, 0.9999999999999926725, 29.80000000000000071 ) ) ;
#179 = FACE_OUTER_BOUND ( 'NONE', #112, .T. ) ;
#180 = EDGE_CURVE ( 'NONE', #193, #193, #16, .T. ) ;
#181 = PERSON_AND_ORGANIZATION_ROLE ( 'design_owner' ) ;
#182 = APPLICATION_PROTOCOL_DEFINITION ( 'international standard', 'config_control_design', 1994, #22 ) ;
#183 = CALENDAR_DATE ( 2021, 8, 12 ) ;
#184 = PRODUCT_DEFINITION ( 'UNKNOWN', '', #177, #174 ) ;
#185 = ORIENTED_EDGE ( 'NONE', *, *, #78, .F. ) ;
#186 = CC_DESIGN_SECURITY_CLASSIFICATION ( #200, ( #177 ) ) ;
#187 = ORIENTED_EDGE ( 'NONE', *, *, #125, .F. ) ;
#188 = ADVANCED_FACE ( 'NONE', ( #149, #146 ), #9, .T. ) ;
#189 = APPROVAL ( #12, 'UNSPECIFIED' ) ;
#190 = FACE_OUTER_BOUND ( 'NONE', #29, .T. ) ;
#191 = LOCAL_TIME ( 9, 40, 7.000000000000000000, #108 ) ;
#192 = ADVANCED_FACE ( 'NONE', ( #160 ), #36, .F. ) ;
#193 = VERTEX_POINT ( 'NONE', #91 ) ;
#194 = SHAPE_DEFINITION_REPRESENTATION ( #80, #5 ) ;
#195 = DATE_TIME_ROLE ( 'creation_date' ) ;
#196 = AXIS2_PLACEMENT_3D ( 'NONE', #26, #74, #71 ) ;
#197 = APPROVAL_ROLE ( '' ) ;
#198 = DATE_TIME_ROLE ( 'classification_date' ) ;
#199 = ORIENTED_EDGE ( 'NONE', *, *, #125, .T. ) ;
#200 = SECURITY_CLASSIFICATION ( '', '', #111 ) ;
#201 = DIRECTION ( 'NONE',  ( 0.0000000000000000000, 0.0000000000000000000, 1.000000000000000000 ) ) ;
#202 = AXIS2_PLACEMENT_3D ( 'NONE', #132, #20, #69 ) ;
#203 = ORIENTED_EDGE ( 'NONE', *, *, #173, .F. ) ;
ENDSEC;
END-ISO-10303-21;
