ISO-10303-21;
HEADER;
FILE_DESCRIPTION (( 'STEP AP203' ),
    '1' );
FILE_NAME ('372572.step',
    '2021-12-08T08:40:06',
    ( '' ),
    ( '' ),
    'SwSTEP 2.0',
    'SolidWorks 2019',
    '' );
FILE_SCHEMA (( 'CONFIG_CONTROL_DESIGN' ));
ENDSEC;

DATA;
#1 = VERTEX_POINT ( 'NONE', #166 ) ;
#2 = CC_DESIGN_APPROVAL ( #62, ( #46 ) ) ;
#3 = PERSON_AND_ORGANIZATION_ROLE ( 'design_supplier' ) ;
#4 = EDGE_LOOP ( 'NONE', ( #98 ) ) ;
#5 = CARTESIAN_POINT ( 'NONE',  ( 2.793185071074506684E-14, -1.021173848934956212E-15, 8.000000000000000000 ) ) ;
#6 = DIRECTION ( 'NONE',  ( 3.491481338843133355E-15, -1.276467311168695266E-16, 1.000000000000000000 ) ) ;
#7 = CC_DESIGN_DATE_AND_TIME_ASSIGNMENT ( #220, #59, ( #46 ) ) ;
#8 = DIRECTION ( 'NONE',  ( -4.275831445896958607E-31, -1.000000000000000000, -1.224646799147353207E-16 ) ) ;
#9 = DIRECTION ( 'NONE',  ( 3.491481338843133355E-15, -1.276467311168695266E-16, 1.000000000000000000 ) ) ;
#10 = PERSON_AND_ORGANIZATION ( #181, #43 ) ;
#11 = PRODUCT_RELATED_PRODUCT_CATEGORY ( 'detail', '', ( #157 ) ) ;
#12 = MANIFOLD_SOLID_BREP ( 'Corps-Déplacer/Copier1[2]', #208 ) ;
#13 = VERTEX_POINT ( 'NONE', #30 ) ;
#14 = LOCAL_TIME ( 9, 40, 6.000000000000000000, #193 ) ;
#15 = CARTESIAN_POINT ( 'NONE',  ( 2.793185071074506684E-14, -0.7500000000000002220, 8.000000000000000000 ) ) ;
#16 = AXIS2_PLACEMENT_3D ( 'NONE', #180, #9, #163 ) ;
#17 = AXIS2_PLACEMENT_3D ( 'NONE', #114, #79, #222 ) ;
#18 = ORIENTED_EDGE ( 'NONE', *, *, #216, .F. ) ;
#19 = CALENDAR_DATE ( 2021, 8, 12 ) ;
#20 = CLOSED_SHELL ( 'NONE', ( #25, #113, #78, #209, #168 ) ) ;
#21 = APPROVAL_ROLE ( '' ) ;
#22 = DIRECTION ( 'NONE',  ( -3.491481338843133355E-15, 1.224646799147353207E-16, -1.000000000000000000 ) ) ;
#23 = DIRECTION ( 'NONE',  ( 0.0000000000000000000, -1.000000000000000000, 0.0000000000000000000 ) ) ;
#24 = FACE_OUTER_BOUND ( 'NONE', #103, .T. ) ;
#25 = ADVANCED_FACE ( 'NONE', ( #217, #143 ), #111, .T. ) ;
#26 = FACE_OUTER_BOUND ( 'NONE', #72, .T. ) ;
#27 = EDGE_LOOP ( 'NONE', ( #36 ) ) ;
#28 = VERTEX_POINT ( 'NONE', #93 ) ;
#29 = APPROVAL_STATUS ( 'not_yet_approved' ) ;
#30 = CARTESIAN_POINT ( 'NONE',  ( 3.770464002342588453E-14, -1.499999999999998668, 10.79903810567663847 ) ) ;
#31 = COORDINATED_UNIVERSAL_TIME_OFFSET ( 1, 0, .AHEAD. ) ;
#32 = EDGE_LOOP ( 'NONE', ( #18 ) ) ;
#33 = CIRCLE ( 'NONE', #86, 1.350000000000002975 ) ;
#34 = DATE_TIME_ROLE ( 'classification_date' ) ;
#35 = PERSON_AND_ORGANIZATION ( #181, #43 ) ;
#36 = ORIENTED_EDGE ( 'NONE', *, *, #207, .F. ) ;
#37 = DIRECTION ( 'NONE',  ( 0.0000000000000000000, 1.000000000000000000, 0.0000000000000000000 ) ) ;
#38 = APPROVAL_STATUS ( 'not_yet_approved' ) ;
#39 = FACE_OUTER_BOUND ( 'NONE', #67, .T. ) ;
#40 = CARTESIAN_POINT ( 'NONE',  ( 3.770464002342588453E-14, -1.378461913396133929E-15, 10.79903810567663847 ) ) ;
#41 = ORIENTED_EDGE ( 'NONE', *, *, #137, .F. ) ;
#42 = DIRECTION ( 'NONE',  ( -3.491481338843133355E-15, 1.276467311168695266E-16, -1.000000000000000000 ) ) ;
#43 = ORGANIZATION ( 'UNSPECIFIED', 'UNSPECIFIED', '' ) ;
#44 = DIRECTION ( 'NONE',  ( -4.456761796588770537E-31, -1.000000000000000000, -1.276467311168695266E-16 ) ) ;
#45 = DATE_AND_TIME ( #204, #172 ) ;
#46 = PRODUCT_DEFINITION ( 'UNKNOWN', '', #82, #99 ) ;
#47 = CIRCLE ( 'NONE', #177, 1.499999999999997335 ) ;
#48 = CARTESIAN_POINT ( 'NONE',  ( 2.793185071074506684E-14, -0.7500000000000002220, 8.000000000000000000 ) ) ;
#49 = EDGE_LOOP ( 'NONE', ( #173 ) ) ;
#50 = SECURITY_CLASSIFICATION_LEVEL ( 'unclassified' ) ;
#51 = LOCAL_TIME ( 9, 40, 6.000000000000000000, #205 ) ;
#52 = FACE_OUTER_BOUND ( 'NONE', #83, .T. ) ;
#53 = PERSON_AND_ORGANIZATION ( #181, #43 ) ;
#54 = CC_DESIGN_PERSON_AND_ORGANIZATION_ASSIGNMENT ( #65, #159, ( #221 ) ) ;
#55 = CARTESIAN_POINT ( 'NONE',  ( -8.551659896729059623E-31, 2.999518514796378685E-32, -2.449292740474037175E-16 ) ) ;
#56 = DIRECTION ( 'NONE',  ( -3.491481338843133355E-15, 1.224646799147353207E-16, -1.000000000000000000 ) ) ;
#57 = DIRECTION ( 'NONE',  ( 0.0000000000000000000, 1.000000000000000000, 0.0000000000000000000 ) ) ;
#58 = CARTESIAN_POINT ( 'NONE',  ( 2.094888803305880013E-13, 1.012337853296745127E-32, 60.00000000000000000 ) ) ;
#59 = DATE_TIME_ROLE ( 'creation_date' ) ;
#60 = APPROVAL_ROLE ( '' ) ;
#61 = COORDINATED_UNIVERSAL_TIME_OFFSET ( 1, 0, .AHEAD. ) ;
#62 = APPROVAL ( #92, 'UNSPECIFIED' ) ;
#63 = PERSON_AND_ORGANIZATION_ROLE ( 'design_owner' ) ;
#64 = APPROVAL_PERSON_ORGANIZATION ( #35, #131, #21 ) ;
#65 = PERSON_AND_ORGANIZATION ( #181, #43 ) ;
#66 = CC_DESIGN_APPROVAL ( #131, ( #221 ) ) ;
#67 = EDGE_LOOP ( 'NONE', ( #212 ) ) ;
#68 = CC_DESIGN_DATE_AND_TIME_ASSIGNMENT ( #123, #34, ( #221 ) ) ;
#69 = CIRCLE ( 'NONE', #162, 1.500000000000002887 ) ;
#70 = PLANE ( 'NONE',  #80 ) ;
#71 = PRODUCT_DEFINITION_SHAPE ( 'NONE', 'NONE',  #46 ) ;
#72 = EDGE_LOOP ( 'NONE', ( #179 ) ) ;
#73 = CARTESIAN_POINT ( 'NONE',  ( 2.793185071074506684E-14, -1.021173848934956212E-15, 8.000000000000000000 ) ) ;
#74 = DIRECTION ( 'NONE',  ( -3.491481338843133355E-15, 1.224646799147353207E-16, -1.000000000000000000 ) ) ;
#75 = AXIS2_PLACEMENT_3D ( 'NONE', #5, #183, #110 ) ;
#76 = CALENDAR_DATE ( 2021, 8, 12 ) ;
#77 =( LENGTH_UNIT ( ) NAMED_UNIT ( * ) SI_UNIT ( .MILLI., .METRE. ) );
#78 = ADVANCED_FACE ( 'NONE', ( #52 ), #127, .F. ) ;
#79 = DIRECTION ( 'NONE',  ( 0.0000000000000000000, 0.0000000000000000000, 1.000000000000000000 ) ) ;
#80 = AXIS2_PLACEMENT_3D ( 'NONE', #55, #125, #196 ) ;
#81 = MECHANICAL_CONTEXT ( 'NONE', #136, 'mechanical' ) ;
#82 = PRODUCT_DEFINITION_FORMATION_WITH_SPECIFIED_SOURCE ( 'ANY', '', #157, .NOT_KNOWN. ) ;
#83 = EDGE_LOOP ( 'NONE', ( #164 ) ) ;
#84 = VERTEX_POINT ( 'NONE', #15 ) ;
#85 = EDGE_CURVE ( 'NONE', #28, #28, #69, .T. ) ;
#86 = AXIS2_PLACEMENT_3D ( 'NONE', #90, #22, #37 ) ;
#87 = CARTESIAN_POINT ( 'NONE',  ( 2.793185071074506684E-14, 1.124819836996385679E-32, 8.000000000000000000 ) ) ;
#88 = DIRECTION ( 'NONE',  ( 3.491481338843133355E-15, -1.224646799147353207E-16, 1.000000000000000000 ) ) ;
#89 = DIRECTION ( 'NONE',  ( 3.491481338843133355E-15, -1.224646799147353207E-16, 1.000000000000000000 ) ) ;
#90 = CARTESIAN_POINT ( 'NONE',  ( 2.094888803305880013E-13, -7.347880794884118356E-15, 60.00000000000000000 ) ) ;
#91 = PLANE ( 'NONE',  #109 ) ;
#92 = APPROVAL_STATUS ( 'not_yet_approved' ) ;
#93 = CARTESIAN_POINT ( 'NONE',  ( 2.089651581297615282E-13, 1.499999999999995559, 59.85000000000000142 ) ) ;
#94 = ADVANCED_FACE ( 'NONE', ( #24 ), #165, .T. ) ;
#95 = DIRECTION ( 'NONE',  ( 3.491481338843133355E-15, -1.276467311168695266E-16, 1.000000000000000000 ) ) ;
#96 = CC_DESIGN_SECURITY_CLASSIFICATION ( #221, ( #82 ) ) ;
#97 = PERSON_AND_ORGANIZATION ( #181, #43 ) ;
#98 = ORIENTED_EDGE ( 'NONE', *, *, #85, .T. ) ;
#99 = DESIGN_CONTEXT ( 'detailed design', #147, 'design' ) ;
#100 = CC_DESIGN_PERSON_AND_ORGANIZATION_ASSIGNMENT ( #53, #211, ( #82 ) ) ;
#101 = APPROVAL_DATE_TIME ( #45, #128 ) ;
#102 = CALENDAR_DATE ( 2021, 8, 12 ) ;
#103 = EDGE_LOOP ( 'NONE', ( #117 ) ) ;
#104 = COORDINATED_UNIVERSAL_TIME_OFFSET ( 1, 0, .AHEAD. ) ;
#105 = AXIS2_PLACEMENT_3D ( 'NONE', #197, #74, #57 ) ;
#106 = DIRECTION ( 'NONE',  ( 0.0000000000000000000, 1.000000000000000000, 0.0000000000000000000 ) ) ;
#107 = LOCAL_TIME ( 9, 40, 6.000000000000000000, #104 ) ;
#108 = CYLINDRICAL_SURFACE ( 'NONE', #16, 0.7499999999999995559 ) ;
#109 = AXIS2_PLACEMENT_3D ( 'NONE', #87, #89, #8 ) ;
#110 = DIRECTION ( 'NONE',  ( 0.0000000000000000000, -1.000000000000000000, 0.0000000000000000000 ) ) ;
#111 = CYLINDRICAL_SURFACE ( 'NONE', #149, 1.499999999999997335 ) ;
#112 = APPROVAL_DATE_TIME ( #135, #62 ) ;
#113 = ADVANCED_FACE ( 'NONE', ( #184, #124 ), #182, .T. ) ;
#114 = CARTESIAN_POINT ( 'NONE',  ( 0.0000000000000000000, 0.0000000000000000000, 0.0000000000000000000 ) ) ;
#115 = APPLICATION_PROTOCOL_DEFINITION ( 'international standard', 'config_control_design', 1994, #147 ) ;
#116 = CIRCLE ( 'NONE', #170, 0.7499999999999997780 ) ;
#117 = ORIENTED_EDGE ( 'NONE', *, *, #207, .T. ) ;
#118 = APPROVAL_PERSON_ORGANIZATION ( #188, #128, #60 ) ;
#119 = CARTESIAN_POINT ( 'NONE',  ( 6.278049405826538018E-31, -4.640088260904260933E-32, 1.798104814705011619E-16 ) ) ;
#120 = PERSON_AND_ORGANIZATION ( #181, #43 ) ;
#121 = ORIENTED_EDGE ( 'NONE', *, *, #145, .T. ) ;
#122 = CC_DESIGN_APPROVAL ( #128, ( #82 ) ) ;
#123 = DATE_AND_TIME ( #19, #107 ) ;
#124 = FACE_BOUND ( 'NONE', #49, .T. ) ;
#125 = DIRECTION ( 'NONE',  ( 3.491481338843133355E-15, -1.224646799147353207E-16, 1.000000000000000000 ) ) ;
#126 = EDGE_CURVE ( 'NONE', #1, #1, #33, .T. ) ;
#127 = PLANE ( 'NONE',  #189 ) ;
#128 = APPROVAL ( #29, 'UNSPECIFIED' ) ;
#129 = FACE_BOUND ( 'NONE', #194, .T. ) ;
#130 = DIRECTION ( 'NONE',  ( -3.491481338843133355E-15, 1.224646799147353207E-16, -1.000000000000000000 ) ) ;
#131 = APPROVAL ( #38, 'UNSPECIFIED' ) ;
#132 = DIRECTION ( 'NONE',  ( 0.0000000000000000000, -1.000000000000000000, 0.0000000000000000000 ) ) ;
#133 = LOCAL_TIME ( 9, 40, 6.000000000000000000, #61 ) ;
#134 = AXIS2_PLACEMENT_3D ( 'NONE', #215, #88, #161 ) ;
#135 = DATE_AND_TIME ( #206, #133 ) ;
#136 = APPLICATION_CONTEXT ( 'configuration controlled 3d designs of mechanical parts and assemblies' ) ;
#137 = EDGE_CURVE ( 'NONE', #13, #13, #47, .T. ) ;
#138 = VERTEX_POINT ( 'NONE', #167 ) ;
#139 = EDGE_LOOP ( 'NONE', ( #41 ) ) ;
#140 = ADVANCED_BREP_SHAPE_REPRESENTATION ( '372572', ( #156, #12, #17 ), #210 ) ;
#141 = APPROVAL_ROLE ( '' ) ;
#142 = CIRCLE ( 'NONE', #202, 0.7499999999999992228 ) ;
#143 = FACE_OUTER_BOUND ( 'NONE', #139, .T. ) ;
#144 = CIRCLE ( 'NONE', #75, 0.7499999999999992228 ) ;
#145 = EDGE_CURVE ( 'NONE', #201, #201, #144, .T. ) ;
#146 = CARTESIAN_POINT ( 'NONE',  ( 0.0000000000000000000, 0.0000000000000000000, 0.0000000000000000000 ) ) ;
#147 = APPLICATION_CONTEXT ( 'configuration controlled 3d designs of mechanical parts and assemblies' ) ;
#148 = DIRECTION ( 'NONE',  ( 0.0000000000000000000, -1.000000000000000000, 0.0000000000000000000 ) ) ;
#149 = AXIS2_PLACEMENT_3D ( 'NONE', #146, #130, #213 ) ;
#150 = DIRECTION ( 'NONE',  ( -3.491481338843133355E-15, 1.224646799147353207E-16, -1.000000000000000000 ) ) ;
#151 = ADVANCED_FACE ( 'NONE', ( #219 ), #70, .F. ) ;
#152 =( NAMED_UNIT ( * ) PLANE_ANGLE_UNIT ( ) SI_UNIT ( $, .RADIAN. ) );
#153 =( NAMED_UNIT ( * ) SI_UNIT ( $, .STERADIAN. ) SOLID_ANGLE_UNIT ( ) );
#154 = PERSON_AND_ORGANIZATION ( #181, #43 ) ;
#155 = EDGE_LOOP ( 'NONE', ( #214 ) ) ;
#156 = MANIFOLD_SOLID_BREP ( 'Corps-Déplacer/Copier1[1]', #20 ) ;
#157 = PRODUCT ( '372572', '372572', '', ( #81 ) ) ;
#158 = CONICAL_SURFACE ( 'NONE', #218, 5.749999999999999112, 0.2617993877991501850 ) ;
#159 = PERSON_AND_ORGANIZATION_ROLE ( 'classification_officer' ) ;
#160 = ORIENTED_EDGE ( 'NONE', *, *, #85, .F. ) ;
#161 = DIRECTION ( 'NONE',  ( -4.275831445896958607E-31, -1.000000000000000000, -1.224646799147353207E-16 ) ) ;
#162 = AXIS2_PLACEMENT_3D ( 'NONE', #195, #150, #106 ) ;
#163 = DIRECTION ( 'NONE',  ( -4.456761796588769661E-31, -1.000000000000000000, -1.276467311168695019E-16 ) ) ;
#164 = ORIENTED_EDGE ( 'NONE', *, *, #126, .F. ) ;
#165 = PLANE ( 'NONE',  #134 ) ;
#166 = CARTESIAN_POINT ( 'NONE',  ( 2.094888803305880013E-13, 1.349999999999995426, 60.00000000000000000 ) ) ;
#167 = CARTESIAN_POINT ( 'NONE',  ( 2.935478058384961210E-31, -0.7499999999999997780, 8.407543313284902931E-17 ) ) ;
#168 = ADVANCED_FACE ( 'NONE', ( #26 ), #91, .F. ) ;
#169 = CC_DESIGN_PERSON_AND_ORGANIZATION_ASSIGNMENT ( #97, #63, ( #157 ) ) ;
#170 = AXIS2_PLACEMENT_3D ( 'NONE', #119, #95, #44 ) ;
#171 = DIRECTION ( 'NONE',  ( 3.491481338843133355E-15, -1.276467311168695266E-16, 1.000000000000000000 ) ) ;
#172 = LOCAL_TIME ( 9, 40, 6.000000000000000000, #31 ) ;
#173 = ORIENTED_EDGE ( 'NONE', *, *, #126, .T. ) ;
#174 = SHAPE_DEFINITION_REPRESENTATION ( #71, #140 ) ;
#175 = ADVANCED_FACE ( 'NONE', ( #39, #178 ), #108, .T. ) ;
#176 = APPROVAL_DATE_TIME ( #192, #131 ) ;
#177 = AXIS2_PLACEMENT_3D ( 'NONE', #40, #42, #23 ) ;
#178 = FACE_OUTER_BOUND ( 'NONE', #27, .T. ) ;
#179 = ORIENTED_EDGE ( 'NONE', *, *, #145, .F. ) ;
#180 = CARTESIAN_POINT ( 'NONE',  ( -6.413839710158237013E-31, 0.0000000000000000000, -1.836996703606440502E-16 ) ) ;
#181 = PERSON ( 'UNSPECIFIED', 'UNSPECIFIED', 'UNSPECIFIED', ('UNSPECIFIED'), ('UNSPECIFIED'), ('UNSPECIFIED') ) ;
#182 = CONICAL_SURFACE ( 'NONE', #105, 1.350000000000002975, 0.7853981633974569387 ) ;
#183 = DIRECTION ( 'NONE',  ( 3.491481338843133355E-15, -1.276467311168695266E-16, 1.000000000000000000 ) ) ;
#184 = FACE_OUTER_BOUND ( 'NONE', #191, .T. ) ;
#185 = UNCERTAINTY_MEASURE_WITH_UNIT (LENGTH_MEASURE( 1.000000000000000082E-05 ), #77, 'distance_accuracy_value', 'NONE');
#186 = PERSON_AND_ORGANIZATION_ROLE ( 'creator' ) ;
#187 = CARTESIAN_POINT ( 'NONE',  ( 9.308377946195077470E-14, -3.403094278676150060E-15, 26.66025403784432868 ) ) ;
#188 = PERSON_AND_ORGANIZATION ( #181, #43 ) ;
#189 = AXIS2_PLACEMENT_3D ( 'NONE', #58, #56, #199 ) ;
#190 = CC_DESIGN_PERSON_AND_ORGANIZATION_ASSIGNMENT ( #120, #3, ( #82 ) ) ;
#191 = EDGE_LOOP ( 'NONE', ( #160 ) ) ;
#192 = DATE_AND_TIME ( #102, #14 ) ;
#193 = COORDINATED_UNIVERSAL_TIME_OFFSET ( 1, 0, .AHEAD. ) ;
#194 = EDGE_LOOP ( 'NONE', ( #121 ) ) ;
#195 = CARTESIAN_POINT ( 'NONE',  ( 2.089651581297615282E-13, -7.329511092896908714E-15, 59.85000000000000142 ) ) ;
#196 = DIRECTION ( 'NONE',  ( -4.275831445896958607E-31, -1.000000000000000000, -1.224646799147353207E-16 ) ) ;
#197 = CARTESIAN_POINT ( 'NONE',  ( 2.094888803305880013E-13, -7.347880794884118356E-15, 60.00000000000000000 ) ) ;
#198 = FACE_OUTER_BOUND ( 'NONE', #155, .T. ) ;
#199 = DIRECTION ( 'NONE',  ( 4.275831445896958607E-31, 1.000000000000000000, 1.224646799147353207E-16 ) ) ;
#200 = APPROVAL_PERSON_ORGANIZATION ( #154, #62, #141 ) ;
#201 = VERTEX_POINT ( 'NONE', #48 ) ;
#202 = AXIS2_PLACEMENT_3D ( 'NONE', #73, #6, #148 ) ;
#203 = CC_DESIGN_PERSON_AND_ORGANIZATION_ASSIGNMENT ( #10, #186, ( #46 ) ) ;
#204 = CALENDAR_DATE ( 2021, 8, 12 ) ;
#205 = COORDINATED_UNIVERSAL_TIME_OFFSET ( 1, 0, .AHEAD. ) ;
#206 = CALENDAR_DATE ( 2021, 8, 12 ) ;
#207 = EDGE_CURVE ( 'NONE', #84, #84, #142, .T. ) ;
#208 = CLOSED_SHELL ( 'NONE', ( #94, #175, #151 ) ) ;
#209 = ADVANCED_FACE ( 'NONE', ( #129, #198 ), #158, .T. ) ;
#210 =( GEOMETRIC_REPRESENTATION_CONTEXT ( 3 ) GLOBAL_UNCERTAINTY_ASSIGNED_CONTEXT ( ( #185 ) ) GLOBAL_UNIT_ASSIGNED_CONTEXT ( ( #77, #152, #153 ) ) REPRESENTATION_CONTEXT ( 'NONE', 'WORKASPACE' ) );
#211 = PERSON_AND_ORGANIZATION_ROLE ( 'creator' ) ;
#212 = ORIENTED_EDGE ( 'NONE', *, *, #216, .T. ) ;
#213 = DIRECTION ( 'NONE',  ( 4.275831445896959482E-31, 1.000000000000000000, 1.224646799147353207E-16 ) ) ;
#214 = ORIENTED_EDGE ( 'NONE', *, *, #137, .T. ) ;
#215 = CARTESIAN_POINT ( 'NONE',  ( 2.793185071074506684E-14, 1.124819836996385679E-32, 8.000000000000000000 ) ) ;
#216 = EDGE_CURVE ( 'NONE', #138, #138, #116, .T. ) ;
#217 = FACE_OUTER_BOUND ( 'NONE', #4, .T. ) ;
#218 = AXIS2_PLACEMENT_3D ( 'NONE', #187, #171, #132 ) ;
#219 = FACE_OUTER_BOUND ( 'NONE', #32, .T. ) ;
#220 = DATE_AND_TIME ( #76, #51 ) ;
#221 = SECURITY_CLASSIFICATION ( '', '', #50 ) ;
#222 = DIRECTION ( 'NONE',  ( 1.000000000000000000, 0.0000000000000000000, 0.0000000000000000000 ) ) ;
#223 = APPLICATION_PROTOCOL_DEFINITION ( 'international standard', 'config_control_design', 1994, #136 ) ;
ENDSEC;
END-ISO-10303-21;
