ISO-10303-21;
HEADER;
FILE_DESCRIPTION (( 'STEP AP203' ),
    '1' );
FILE_NAME ('372571.step',
    '2021-12-08T08:40:06',
    ( '' ),
    ( '' ),
    'SwSTEP 2.0',
    'SolidWorks 2019',
    '' );
FILE_SCHEMA (( 'CONFIG_CONTROL_DESIGN' ));
ENDSEC;

DATA;
#1 = LOCAL_TIME ( 9, 40, 6.000000000000000000, #193 ) ;
#2 = DIRECTION ( 'NONE',  ( -3.491481338843133355E-15, 1.224646799147353207E-16, -1.000000000000000000 ) ) ;
#3 = DATE_TIME_ROLE ( 'classification_date' ) ;
#4 = PERSON_AND_ORGANIZATION ( #221, #90 ) ;
#5 = MECHANICAL_CONTEXT ( 'NONE', #143, 'mechanical' ) ;
#6 = PLANE ( 'NONE',  #120 ) ;
#7 = EDGE_LOOP ( 'NONE', ( #214 ) ) ;
#8 = CC_DESIGN_PERSON_AND_ORGANIZATION_ASSIGNMENT ( #180, #160, ( #107 ) ) ;
#9 = ORIENTED_EDGE ( 'NONE', *, *, #131, .F. ) ;
#10 = APPROVAL_PERSON_ORGANIZATION ( #21, #171, #207 ) ;
#11 = ADVANCED_FACE ( 'NONE', ( #128, #80 ), #59, .T. ) ;
#12 = ORIENTED_EDGE ( 'NONE', *, *, #129, .T. ) ;
#13 = DIRECTION ( 'NONE',  ( -4.456761796588769661E-31, -1.000000000000000000, -1.276467311168695019E-16 ) ) ;
#14 = CIRCLE ( 'NONE', #111, 0.7499999999999997780 ) ;
#15 = FACE_OUTER_BOUND ( 'NONE', #25, .T. ) ;
#16 = FACE_OUTER_BOUND ( 'NONE', #218, .T. ) ;
#17 = DIRECTION ( 'NONE',  ( 0.0000000000000000000, -1.000000000000000000, 0.0000000000000000000 ) ) ;
#18 = UNCERTAINTY_MEASURE_WITH_UNIT (LENGTH_MEASURE( 1.000000000000000082E-05 ), #37, 'distance_accuracy_value', 'NONE');
#19 = CONICAL_SURFACE ( 'NONE', #114, 1.350000000000000977, 0.7853981633974801424 ) ;
#20 = COORDINATED_UNIVERSAL_TIME_OFFSET ( 1, 0, .AHEAD. ) ;
#21 = PERSON_AND_ORGANIZATION ( #221, #90 ) ;
#22 = CC_DESIGN_DATE_AND_TIME_ASSIGNMENT ( #206, #39, ( #62 ) ) ;
#23 = COORDINATED_UNIVERSAL_TIME_OFFSET ( 1, 0, .AHEAD. ) ;
#24 = PERSON_AND_ORGANIZATION ( #221, #90 ) ;
#25 = EDGE_LOOP ( 'NONE', ( #166 ) ) ;
#26 = AXIS2_PLACEMENT_3D ( 'NONE', #170, #202, #13 ) ;
#27 = EDGE_LOOP ( 'NONE', ( #43 ) ) ;
#28 = AXIS2_PLACEMENT_3D ( 'NONE', #201, #121, #103 ) ;
#29 = EDGE_LOOP ( 'NONE', ( #216 ) ) ;
#30 = CARTESIAN_POINT ( 'NONE',  ( 3.072167734573959888E-14, -1.499999999999997558, 8.799038105676633137 ) ) ;
#31 = FACE_OUTER_BOUND ( 'NONE', #60, .T. ) ;
#32 = DIRECTION ( 'NONE',  ( -4.275831445896958607E-31, -1.000000000000000000, -1.224646799147353207E-16 ) ) ;
#33 = ADVANCED_FACE ( 'NONE', ( #217 ), #6, .T. ) ;
#34 = CLOSED_SHELL ( 'NONE', ( #119, #198, #139, #11, #208 ) ) ;
#35 = DIRECTION ( 'NONE',  ( -4.275831445896958607E-31, -1.000000000000000000, -1.224646799147353207E-16 ) ) ;
#36 = FACE_OUTER_BOUND ( 'NONE', #78, .T. ) ;
#37 =( LENGTH_UNIT ( ) NAMED_UNIT ( * ) SI_UNIT ( .MILLI., .METRE. ) );
#38 = VERTEX_POINT ( 'NONE', #56 ) ;
#39 = DATE_TIME_ROLE ( 'creation_date' ) ;
#40 = LOCAL_TIME ( 9, 40, 6.000000000000000000, #159 ) ;
#41 = PERSON_AND_ORGANIZATION ( #221, #90 ) ;
#42 = CIRCLE ( 'NONE', #169, 0.7499999999999994449 ) ;
#43 = ORIENTED_EDGE ( 'NONE', *, *, #191, .T. ) ;
#44 = CC_DESIGN_SECURITY_CLASSIFICATION ( #65, ( #107 ) ) ;
#45 = VERTEX_POINT ( 'NONE', #219 ) ;
#46 = DIRECTION ( 'NONE',  ( -3.491481338843133355E-15, 1.224646799147353207E-16, -1.000000000000000000 ) ) ;
#47 = EDGE_CURVE ( 'NONE', #192, #192, #190, .T. ) ;
#48 = CARTESIAN_POINT ( 'NONE',  ( 1.326762908760390423E-13, -4.653657836759941941E-15, 38.00000000000000000 ) ) ;
#49 = DIRECTION ( 'NONE',  ( 3.491481338843133355E-15, -1.224646799147353207E-16, 1.000000000000000000 ) ) ;
#50 = DIRECTION ( 'NONE',  ( 0.0000000000000000000, 1.000000000000000000, 0.0000000000000000000 ) ) ;
#51 = APPROVAL_ROLE ( '' ) ;
#52 = AXIS2_PLACEMENT_3D ( 'NONE', #135, #2, #133 ) ;
#53 = PERSON_AND_ORGANIZATION_ROLE ( 'creator' ) ;
#54 = PERSON_AND_ORGANIZATION_ROLE ( 'design_supplier' ) ;
#55 = COORDINATED_UNIVERSAL_TIME_OFFSET ( 1, 0, .AHEAD. ) ;
#56 = CARTESIAN_POINT ( 'NONE',  ( 1.321525686752126196E-13, 1.499999999999996447, 37.85000000000000853 ) ) ;
#57 = EDGE_LOOP ( 'NONE', ( #12 ) ) ;
#58 = CARTESIAN_POINT ( 'NONE',  ( 2.094888803305880013E-14, 1.124819836996386364E-32, 6.000000000000000000 ) ) ;
#59 = CONICAL_SURFACE ( 'NONE', #123, 5.750000000000000000, 0.2617993877991502405 ) ;
#60 = EDGE_LOOP ( 'NONE', ( #112 ) ) ;
#61 = VERTEX_POINT ( 'NONE', #30 ) ;
#62 = PRODUCT_DEFINITION ( 'UNKNOWN', '', #107, #176 ) ;
#63 = DIRECTION ( 'NONE',  ( 3.491481338843133355E-15, -1.276467311168695266E-16, 1.000000000000000000 ) ) ;
#64 = CYLINDRICAL_SURFACE ( 'NONE', #26, 0.7499999999999995559 ) ;
#65 = SECURITY_CLASSIFICATION ( '', '', #94 ) ;
#66 = CARTESIAN_POINT ( 'NONE',  ( 2.094888803305880013E-14, -7.658803867012171593E-16, 6.000000000000000000 ) ) ;
#67 = CC_DESIGN_PERSON_AND_ORGANIZATION_ASSIGNMENT ( #197, #110, ( #65 ) ) ;
#68 = PERSON_AND_ORGANIZATION ( #221, #90 ) ;
#69 = APPROVAL_DATE_TIME ( #93, #171 ) ;
#70 = CIRCLE ( 'NONE', #144, 1.500000000000000888 ) ;
#71 =( NAMED_UNIT ( * ) PLANE_ANGLE_UNIT ( ) SI_UNIT ( $, .RADIAN. ) );
#72 =( NAMED_UNIT ( * ) SI_UNIT ( $, .STERADIAN. ) SOLID_ANGLE_UNIT ( ) );
#73 = APPROVAL_STATUS ( 'not_yet_approved' ) ;
#74 =( GEOMETRIC_REPRESENTATION_CONTEXT ( 3 ) GLOBAL_UNCERTAINTY_ASSIGNED_CONTEXT ( ( #18 ) ) GLOBAL_UNIT_ASSIGNED_CONTEXT ( ( #37, #71, #72 ) ) REPRESENTATION_CONTEXT ( 'NONE', 'WORKASPACE' ) );
#75 = CC_DESIGN_PERSON_AND_ORGANIZATION_ASSIGNMENT ( #24, #54, ( #107 ) ) ;
#76 = CALENDAR_DATE ( 2021, 8, 12 ) ;
#77 = MANIFOLD_SOLID_BREP ( 'Corps-Déplacer/Copier1[2]', #106 ) ;
#78 = EDGE_LOOP ( 'NONE', ( #130 ) ) ;
#79 = ORIENTED_EDGE ( 'NONE', *, *, #47, .F. ) ;
#80 = FACE_OUTER_BOUND ( 'NONE', #29, .T. ) ;
#81 = CC_DESIGN_APPROVAL ( #158, ( #62 ) ) ;
#82 = APPROVAL ( #138, 'UNSPECIFIED' ) ;
#83 = SHAPE_DEFINITION_REPRESENTATION ( #127, #101 ) ;
#84 = APPLICATION_CONTEXT ( 'configuration controlled 3d designs of mechanical parts and assemblies' ) ;
#85 = CARTESIAN_POINT ( 'NONE',  ( 1.326762908760390423E-13, 1.349999999999996314, 38.00000000000000000 ) ) ;
#86 = CARTESIAN_POINT ( 'NONE',  ( 1.326762908760390423E-13, -4.653657836759941941E-15, 38.00000000000000000 ) ) ;
#87 = CARTESIAN_POINT ( 'NONE',  ( -8.551702734137417302E-31, 2.999533540136611149E-32, -2.449305009595421805E-16 ) ) ;
#88 = DIRECTION ( 'NONE',  ( 0.0000000000000000000, 1.000000000000000000, 0.0000000000000000000 ) ) ;
#89 = CARTESIAN_POINT ( 'NONE',  ( 6.278049405826538018E-31, -4.640088260904260933E-32, 1.798104814705011619E-16 ) ) ;
#90 = ORGANIZATION ( 'UNSPECIFIED', 'UNSPECIFIED', '' ) ;
#91 = CALENDAR_DATE ( 2021, 8, 12 ) ;
#92 = APPROVAL_DATE_TIME ( #126, #158 ) ;
#93 = DATE_AND_TIME ( #108, #40 ) ;
#94 = SECURITY_CLASSIFICATION_LEVEL ( 'unclassified' ) ;
#95 = DIRECTION ( 'NONE',  ( 3.491481338843133355E-15, -1.276467311168695266E-16, 1.000000000000000000 ) ) ;
#96 = DATE_AND_TIME ( #76, #1 ) ;
#97 = APPROVAL_PERSON_ORGANIZATION ( #68, #82, #51 ) ;
#98 = ORIENTED_EDGE ( 'NONE', *, *, #47, .T. ) ;
#99 = EDGE_CURVE ( 'NONE', #105, #105, #154, .T. ) ;
#100 = PLANE ( 'NONE',  #52 ) ;
#101 = ADVANCED_BREP_SHAPE_REPRESENTATION ( '372571', ( #150, #77, #125 ), #74 ) ;
#102 = DIRECTION ( 'NONE',  ( -3.491481338843133355E-15, 1.224646799147353207E-16, -1.000000000000000000 ) ) ;
#103 = DIRECTION ( 'NONE',  ( 0.0000000000000000000, -1.000000000000000000, 0.0000000000000000000 ) ) ;
#104 = CARTESIAN_POINT ( 'NONE',  ( 2.094888803305880013E-14, -0.7500000000000002220, 6.000000000000000000 ) ) ;
#105 = VERTEX_POINT ( 'NONE', #85 ) ;
#106 = CLOSED_SHELL ( 'NONE', ( #33, #172, #199 ) ) ;
#107 = PRODUCT_DEFINITION_FORMATION_WITH_SPECIFIED_SOURCE ( 'ANY', '', #163, .NOT_KNOWN. ) ;
#108 = CALENDAR_DATE ( 2021, 8, 12 ) ;
#109 = CC_DESIGN_PERSON_AND_ORGANIZATION_ASSIGNMENT ( #124, #53, ( #62 ) ) ;
#110 = PERSON_AND_ORGANIZATION_ROLE ( 'classification_officer' ) ;
#111 = AXIS2_PLACEMENT_3D ( 'NONE', #89, #63, #223 ) ;
#112 = ORIENTED_EDGE ( 'NONE', *, *, #145, .F. ) ;
#113 = ORIENTED_EDGE ( 'NONE', *, *, #99, .F. ) ;
#114 = AXIS2_PLACEMENT_3D ( 'NONE', #48, #204, #50 ) ;
#115 = VERTEX_POINT ( 'NONE', #186 ) ;
#116 = DIRECTION ( 'NONE',  ( 4.275831445896958607E-31, 1.000000000000000000, 1.224646799147352961E-16 ) ) ;
#117 = DIRECTION ( 'NONE',  ( 3.491481338843133355E-15, -1.276467311168695266E-16, 1.000000000000000000 ) ) ;
#118 = CARTESIAN_POINT ( 'NONE',  ( 2.094888803305880013E-14, 1.124819836996386364E-32, 6.000000000000000000 ) ) ;
#119 = ADVANCED_FACE ( 'NONE', ( #187, #156 ), #188, .T. ) ;
#120 = AXIS2_PLACEMENT_3D ( 'NONE', #58, #173, #205 ) ;
#121 = DIRECTION ( 'NONE',  ( 3.491481338843133355E-15, -1.276467311168695266E-16, 1.000000000000000000 ) ) ;
#122 = DIRECTION ( 'NONE',  ( 0.0000000000000000000, 0.0000000000000000000, 1.000000000000000000 ) ) ;
#123 = AXIS2_PLACEMENT_3D ( 'NONE', #146, #95, #164 ) ;
#124 = PERSON_AND_ORGANIZATION ( #221, #90 ) ;
#125 = AXIS2_PLACEMENT_3D ( 'NONE', #161, #122, #141 ) ;
#126 = DATE_AND_TIME ( #178, #179 ) ;
#127 = PRODUCT_DEFINITION_SHAPE ( 'NONE', 'NONE',  #62 ) ;
#128 = FACE_BOUND ( 'NONE', #185, .T. ) ;
#129 = EDGE_CURVE ( 'NONE', #45, #45, #14, .T. ) ;
#130 = ORIENTED_EDGE ( 'NONE', *, *, #129, .F. ) ;
#131 = EDGE_CURVE ( 'NONE', #61, #61, #140, .T. ) ;
#132 = PLANE ( 'NONE',  #213 ) ;
#133 = DIRECTION ( 'NONE',  ( 4.275831445896958607E-31, 1.000000000000000000, 1.224646799147353207E-16 ) ) ;
#134 = DIRECTION ( 'NONE',  ( -3.491481338843133355E-15, 1.276467311168695266E-16, -1.000000000000000000 ) ) ;
#135 = CARTESIAN_POINT ( 'NONE',  ( 1.326762908760390423E-13, 1.012337853296747727E-32, 38.00000000000000000 ) ) ;
#136 = APPROVAL_PERSON_ORGANIZATION ( #41, #158, #211 ) ;
#137 = DIRECTION ( 'NONE',  ( 0.0000000000000000000, 1.000000000000000000, 0.0000000000000000000 ) ) ;
#138 = APPROVAL_STATUS ( 'not_yet_approved' ) ;
#139 = ADVANCED_FACE ( 'NONE', ( #16 ), #100, .F. ) ;
#140 = CIRCLE ( 'NONE', #151, 1.499999999999996669 ) ;
#141 = DIRECTION ( 'NONE',  ( 1.000000000000000000, 0.0000000000000000000, 0.0000000000000000000 ) ) ;
#142 = PERSON_AND_ORGANIZATION_ROLE ( 'design_owner' ) ;
#143 = APPLICATION_CONTEXT ( 'configuration controlled 3d designs of mechanical parts and assemblies' ) ;
#144 = AXIS2_PLACEMENT_3D ( 'NONE', #152, #222, #137 ) ;
#145 = EDGE_CURVE ( 'NONE', #115, #115, #42, .T. ) ;
#146 = CARTESIAN_POINT ( 'NONE',  ( 8.610081678426448275E-14, -3.147800816442410711E-15, 24.66025403784432513 ) ) ;
#147 = CC_DESIGN_PERSON_AND_ORGANIZATION_ASSIGNMENT ( #4, #142, ( #163 ) ) ;
#148 = ORIENTED_EDGE ( 'NONE', *, *, #145, .T. ) ;
#149 = FACE_OUTER_BOUND ( 'NONE', #182, .T. ) ;
#150 = MANIFOLD_SOLID_BREP ( 'Corps-Déplacer/Copier1[1]', #34 ) ;
#151 = AXIS2_PLACEMENT_3D ( 'NONE', #155, #134, #200 ) ;
#152 = CARTESIAN_POINT ( 'NONE',  ( 1.321525686752126196E-13, -4.635288134772732300E-15, 37.85000000000000853 ) ) ;
#153 = PLANE ( 'NONE',  #184 ) ;
#154 = CIRCLE ( 'NONE', #210, 1.350000000000000977 ) ;
#155 = CARTESIAN_POINT ( 'NONE',  ( 3.072167734573959888E-14, -1.123168451162394383E-15, 8.799038105676633137 ) ) ;
#156 = FACE_OUTER_BOUND ( 'NONE', #168, .T. ) ;
#157 = DATE_AND_TIME ( #91, #196 ) ;
#158 = APPROVAL ( #177, 'UNSPECIFIED' ) ;
#159 = COORDINATED_UNIVERSAL_TIME_OFFSET ( 1, 0, .AHEAD. ) ;
#160 = PERSON_AND_ORGANIZATION_ROLE ( 'creator' ) ;
#161 = CARTESIAN_POINT ( 'NONE',  ( 0.0000000000000000000, 0.0000000000000000000, 0.0000000000000000000 ) ) ;
#162 = CC_DESIGN_DATE_AND_TIME_ASSIGNMENT ( #157, #3, ( #65 ) ) ;
#163 = PRODUCT ( '372571', '372571', '', ( #5 ) ) ;
#164 = DIRECTION ( 'NONE',  ( 0.0000000000000000000, -1.000000000000000000, 0.0000000000000000000 ) ) ;
#165 = EDGE_LOOP ( 'NONE', ( #148 ) ) ;
#166 = ORIENTED_EDGE ( 'NONE', *, *, #191, .F. ) ;
#167 = CC_DESIGN_APPROVAL ( #171, ( #107 ) ) ;
#168 = EDGE_LOOP ( 'NONE', ( #9 ) ) ;
#169 = AXIS2_PLACEMENT_3D ( 'NONE', #66, #117, #17 ) ;
#170 = CARTESIAN_POINT ( 'NONE',  ( -6.413839710158237013E-31, 0.0000000000000000000, -1.836996703606440502E-16 ) ) ;
#171 = APPROVAL ( #73, 'UNSPECIFIED' ) ;
#172 = ADVANCED_FACE ( 'NONE', ( #175, #31 ), #64, .T. ) ;
#173 = DIRECTION ( 'NONE',  ( 3.491481338843133355E-15, -1.224646799147353207E-16, 1.000000000000000000 ) ) ;
#174 = CARTESIAN_POINT ( 'NONE',  ( 0.0000000000000000000, 0.0000000000000000000, 0.0000000000000000000 ) ) ;
#175 = FACE_OUTER_BOUND ( 'NONE', #57, .T. ) ;
#176 = DESIGN_CONTEXT ( 'detailed design', #84, 'design' ) ;
#177 = APPROVAL_STATUS ( 'not_yet_approved' ) ;
#178 = CALENDAR_DATE ( 2021, 8, 12 ) ;
#179 = LOCAL_TIME ( 9, 40, 6.000000000000000000, #55 ) ;
#180 = PERSON_AND_ORGANIZATION ( #221, #90 ) ;
#181 = AXIS2_PLACEMENT_3D ( 'NONE', #174, #46, #116 ) ;
#182 = EDGE_LOOP ( 'NONE', ( #79 ) ) ;
#183 = CC_DESIGN_APPROVAL ( #82, ( #65 ) ) ;
#184 = AXIS2_PLACEMENT_3D ( 'NONE', #118, #189, #35 ) ;
#185 = EDGE_LOOP ( 'NONE', ( #98 ) ) ;
#186 = CARTESIAN_POINT ( 'NONE',  ( 2.094888803305880013E-14, -0.7500000000000002220, 6.000000000000000000 ) ) ;
#187 = FACE_OUTER_BOUND ( 'NONE', #27, .T. ) ;
#188 = CYLINDRICAL_SURFACE ( 'NONE', #181, 1.499999999999996669 ) ;
#189 = DIRECTION ( 'NONE',  ( 3.491481338843133355E-15, -1.224646799147353207E-16, 1.000000000000000000 ) ) ;
#190 = CIRCLE ( 'NONE', #28, 0.7499999999999994449 ) ;
#191 = EDGE_CURVE ( 'NONE', #38, #38, #70, .T. ) ;
#192 = VERTEX_POINT ( 'NONE', #104 ) ;
#193 = COORDINATED_UNIVERSAL_TIME_OFFSET ( 1, 0, .AHEAD. ) ;
#194 = APPLICATION_PROTOCOL_DEFINITION ( 'international standard', 'config_control_design', 1994, #84 ) ;
#195 = PRODUCT_RELATED_PRODUCT_CATEGORY ( 'detail', '', ( #163 ) ) ;
#196 = LOCAL_TIME ( 9, 40, 6.000000000000000000, #20 ) ;
#197 = PERSON_AND_ORGANIZATION ( #221, #90 ) ;
#198 = ADVANCED_FACE ( 'NONE', ( #15, #220 ), #19, .T. ) ;
#199 = ADVANCED_FACE ( 'NONE', ( #36 ), #132, .F. ) ;
#200 = DIRECTION ( 'NONE',  ( 0.0000000000000000000, -1.000000000000000000, 0.0000000000000000000 ) ) ;
#201 = CARTESIAN_POINT ( 'NONE',  ( 2.094888803305880013E-14, -7.658803867012171593E-16, 6.000000000000000000 ) ) ;
#202 = DIRECTION ( 'NONE',  ( 3.491481338843133355E-15, -1.276467311168695266E-16, 1.000000000000000000 ) ) ;
#203 = LOCAL_TIME ( 9, 40, 6.000000000000000000, #23 ) ;
#204 = DIRECTION ( 'NONE',  ( -3.491481338843133355E-15, 1.224646799147353207E-16, -1.000000000000000000 ) ) ;
#205 = DIRECTION ( 'NONE',  ( -4.275831445896958607E-31, -1.000000000000000000, -1.224646799147353207E-16 ) ) ;
#206 = DATE_AND_TIME ( #212, #203 ) ;
#207 = APPROVAL_ROLE ( '' ) ;
#208 = ADVANCED_FACE ( 'NONE', ( #149 ), #153, .F. ) ;
#209 = APPLICATION_PROTOCOL_DEFINITION ( 'international standard', 'config_control_design', 1994, #143 ) ;
#210 = AXIS2_PLACEMENT_3D ( 'NONE', #86, #102, #88 ) ;
#211 = APPROVAL_ROLE ( '' ) ;
#212 = CALENDAR_DATE ( 2021, 8, 12 ) ;
#213 = AXIS2_PLACEMENT_3D ( 'NONE', #87, #49, #32 ) ;
#214 = ORIENTED_EDGE ( 'NONE', *, *, #99, .T. ) ;
#215 = APPROVAL_DATE_TIME ( #96, #82 ) ;
#216 = ORIENTED_EDGE ( 'NONE', *, *, #131, .T. ) ;
#217 = FACE_OUTER_BOUND ( 'NONE', #165, .T. ) ;
#218 = EDGE_LOOP ( 'NONE', ( #113 ) ) ;
#219 = CARTESIAN_POINT ( 'NONE',  ( 2.935478058384961210E-31, -0.7499999999999997780, 8.407543313284902931E-17 ) ) ;
#220 = FACE_BOUND ( 'NONE', #7, .T. ) ;
#221 = PERSON ( 'UNSPECIFIED', 'UNSPECIFIED', 'UNSPECIFIED', ('UNSPECIFIED'), ('UNSPECIFIED'), ('UNSPECIFIED') ) ;
#222 = DIRECTION ( 'NONE',  ( -3.491481338843133355E-15, 1.224646799147353207E-16, -1.000000000000000000 ) ) ;
#223 = DIRECTION ( 'NONE',  ( -4.456761796588770537E-31, -1.000000000000000000, -1.276467311168695266E-16 ) ) ;
ENDSEC;
END-ISO-10303-21;
