ISO-10303-21;
HEADER;
FILE_DESCRIPTION (( 'STEP AP203' ),
    '1' );
FILE_NAME ('372570.step',
    '2021-12-08T08:40:05',
    ( '' ),
    ( '' ),
    'SwSTEP 2.0',
    'SolidWorks 2019',
    '' );
FILE_SCHEMA (( 'CONFIG_CONTROL_DESIGN' ));
ENDSEC;

DATA;
#1 = DIRECTION ( 'NONE',  ( 1.000000000000000000, 0.0000000000000000000, 0.0000000000000000000 ) ) ;
#2 = FACE_OUTER_BOUND ( 'NONE', #207, .T. ) ;
#3 = DATE_AND_TIME ( #122, #66 ) ;
#4 = DIRECTION ( 'NONE',  ( 0.0000000000000000000, -1.000000000000000000, 0.0000000000000000000 ) ) ;
#5 = MANIFOLD_SOLID_BREP ( 'Corps-Déplacer/Copier1[1]', #127 ) ;
#6 = APPROVAL_DATE_TIME ( #56, #142 ) ;
#7 = DIRECTION ( 'NONE',  ( 0.0000000000000000000, 1.000000000000000000, 0.0000000000000000000 ) ) ;
#8 = AXIS2_PLACEMENT_3D ( 'NONE', #180, #194, #1 ) ;
#9 = DIRECTION ( 'NONE',  ( 3.491481338843133355E-15, -1.224646799147353207E-16, 1.000000000000000000 ) ) ;
#10 = LOCAL_TIME ( 9, 40, 5.000000000000000000, #110 ) ;
#11 = AXIS2_PLACEMENT_3D ( 'NONE', #120, #124, #36 ) ;
#12 = ORIENTED_EDGE ( 'NONE', *, *, #13, .T. ) ;
#13 = EDGE_CURVE ( 'NONE', #70, #70, #146, .T. ) ;
#14 = AXIS2_PLACEMENT_3D ( 'NONE', #223, #38, #214 ) ;
#15 = COORDINATED_UNIVERSAL_TIME_OFFSET ( 1, 0, .AHEAD. ) ;
#16 = CALENDAR_DATE ( 2021, 8, 12 ) ;
#17 = CARTESIAN_POINT ( 'NONE',  ( 8.610081678426448275E-14, -3.147800816442410711E-15, 24.66025403784432513 ) ) ;
#18 = PERSON_AND_ORGANIZATION_ROLE ( 'classification_officer' ) ;
#19 = DIRECTION ( 'NONE',  ( 4.275831445896958607E-31, 1.000000000000000000, 1.224646799147353207E-16 ) ) ;
#20 = FACE_BOUND ( 'NONE', #46, .T. ) ;
#21 = PERSON_AND_ORGANIZATION ( #33, #150 ) ;
#22 = DIRECTION ( 'NONE',  ( -4.275831445896958607E-31, -1.000000000000000000, -1.224646799147353207E-16 ) ) ;
#23 = DIRECTION ( 'NONE',  ( -4.456761796588770537E-31, -1.000000000000000000, -1.276467311168695266E-16 ) ) ;
#24 = CIRCLE ( 'NONE', #171, 1.499999999999999112 ) ;
#25 = CARTESIAN_POINT ( 'NONE',  ( 1.042207179644675275E-13, 1.499999999999995559, 29.84999999999999787 ) ) ;
#26 = EDGE_CURVE ( 'NONE', #209, #209, #177, .T. ) ;
#27 = CLOSED_SHELL ( 'NONE', ( #217, #42, #202 ) ) ;
#28 = EDGE_LOOP ( 'NONE', ( #167 ) ) ;
#29 = AXIS2_PLACEMENT_3D ( 'NONE', #93, #213, #140 ) ;
#30 = PERSON_AND_ORGANIZATION ( #33, #150 ) ;
#31 = PRODUCT ( '372570', '372570', '', ( #172 ) ) ;
#32 = DIRECTION ( 'NONE',  ( 3.491481338843133355E-15, -1.276467311168695266E-16, 1.000000000000000000 ) ) ;
#33 = PERSON ( 'UNSPECIFIED', 'UNSPECIFIED', 'UNSPECIFIED', ('UNSPECIFIED'), ('UNSPECIFIED'), ('UNSPECIFIED') ) ;
#34 = EDGE_CURVE ( 'NONE', #54, #54, #131, .T. ) ;
#35 = APPROVAL_STATUS ( 'not_yet_approved' ) ;
#36 = DIRECTION ( 'NONE',  ( 0.0000000000000000000, 1.000000000000000000, 0.0000000000000000000 ) ) ;
#37 = PERSON_AND_ORGANIZATION_ROLE ( 'design_owner' ) ;
#38 = DIRECTION ( 'NONE',  ( -3.491481338843133355E-15, 1.224646799147353207E-16, -1.000000000000000000 ) ) ;
#39 = APPROVAL_ROLE ( '' ) ;
#40 = CC_DESIGN_APPROVAL ( #175, ( #130 ) ) ;
#41 = FACE_OUTER_BOUND ( 'NONE', #118, .T. ) ;
#42 = ADVANCED_FACE ( 'NONE', ( #211, #176 ), #55, .T. ) ;
#43 = APPROVAL_DATE_TIME ( #141, #107 ) ;
#44 = FACE_OUTER_BOUND ( 'NONE', #82, .T. ) ;
#45 = VERTEX_POINT ( 'NONE', #115 ) ;
#46 = EDGE_LOOP ( 'NONE', ( #152 ) ) ;
#47 = LOCAL_TIME ( 9, 40, 5.000000000000000000, #208 ) ;
#48 = ORIENTED_EDGE ( 'NONE', *, *, #52, .T. ) ;
#49 = CONICAL_SURFACE ( 'NONE', #116, 5.750000000000000000, 0.2617993877991502405 ) ;
#50 = PRODUCT_DEFINITION_SHAPE ( 'NONE', 'NONE',  #130 ) ;
#51 = EDGE_LOOP ( 'NONE', ( #64 ) ) ;
#52 = EDGE_CURVE ( 'NONE', #45, #45, #101, .T. ) ;
#53 = DATE_AND_TIME ( #196, #47 ) ;
#54 = VERTEX_POINT ( 'NONE', #193 ) ;
#55 = CYLINDRICAL_SURFACE ( 'NONE', #29, 0.7499999999999995559 ) ;
#56 = DATE_AND_TIME ( #159, #80 ) ;
#57 = PLANE ( 'NONE',  #129 ) ;
#58 = APPLICATION_PROTOCOL_DEFINITION ( 'international standard', 'config_control_design', 1994, #170 ) ;
#59 = FACE_OUTER_BOUND ( 'NONE', #190, .T. ) ;
#60 = DIRECTION ( 'NONE',  ( 0.0000000000000000000, -1.000000000000000000, 0.0000000000000000000 ) ) ;
#61 = APPLICATION_CONTEXT ( 'configuration controlled 3d designs of mechanical parts and assemblies' ) ;
#62 = CC_DESIGN_PERSON_AND_ORGANIZATION_ASSIGNMENT ( #71, #106, ( #130 ) ) ;
#63 = AXIS2_PLACEMENT_3D ( 'NONE', #125, #9, #215 ) ;
#64 = ORIENTED_EDGE ( 'NONE', *, *, #52, .F. ) ;
#65 = ORIENTED_EDGE ( 'NONE', *, *, #204, .F. ) ;
#66 = LOCAL_TIME ( 9, 40, 5.000000000000000000, #15 ) ;
#67 = APPROVAL_STATUS ( 'not_yet_approved' ) ;
#68 = ORIENTED_EDGE ( 'NONE', *, *, #204, .T. ) ;
#69 = PERSON_AND_ORGANIZATION_ROLE ( 'creator' ) ;
#70 = VERTEX_POINT ( 'NONE', #136 ) ;
#71 = PERSON_AND_ORGANIZATION ( #33, #150 ) ;
#72 = DIRECTION ( 'NONE',  ( -4.275831445896958607E-31, -1.000000000000000000, -1.224646799147353207E-16 ) ) ;
#73 = PERSON_AND_ORGANIZATION ( #33, #150 ) ;
#74 = DIRECTION ( 'NONE',  ( 3.491481338843133355E-15, -1.224646799147353207E-16, 1.000000000000000000 ) ) ;
#75 = COORDINATED_UNIVERSAL_TIME_OFFSET ( 1, 0, .AHEAD. ) ;
#76 =( GEOMETRIC_REPRESENTATION_CONTEXT ( 3 ) GLOBAL_UNCERTAINTY_ASSIGNED_CONTEXT ( ( #128 ) ) GLOBAL_UNIT_ASSIGNED_CONTEXT ( ( #85, #117, #210 ) ) REPRESENTATION_CONTEXT ( 'NONE', 'WORKASPACE' ) );
#77 = FACE_OUTER_BOUND ( 'NONE', #203, .T. ) ;
#78 = DIRECTION ( 'NONE',  ( -3.491481338843133355E-15, 1.276467311168695266E-16, -1.000000000000000000 ) ) ;
#79 = AXIS2_PLACEMENT_3D ( 'NONE', #179, #78, #4 ) ;
#80 = LOCAL_TIME ( 9, 40, 5.000000000000000000, #157 ) ;
#81 = ADVANCED_FACE ( 'NONE', ( #41, #20 ), #206, .T. ) ;
#82 = EDGE_LOOP ( 'NONE', ( #99 ) ) ;
#83 = MANIFOLD_SOLID_BREP ( 'Corps-Déplacer/Copier1[2]', #27 ) ;
#84 = CC_DESIGN_DATE_AND_TIME_ASSIGNMENT ( #53, #119, ( #148 ) ) ;
#85 =( LENGTH_UNIT ( ) NAMED_UNIT ( * ) SI_UNIT ( .MILLI., .METRE. ) );
#86 = DATE_TIME_ROLE ( 'creation_date' ) ;
#87 = FACE_OUTER_BOUND ( 'NONE', #168, .T. ) ;
#88 = CALENDAR_DATE ( 2021, 8, 12 ) ;
#89 = FACE_OUTER_BOUND ( 'NONE', #28, .T. ) ;
#90 = AXIS2_PLACEMENT_3D ( 'NONE', #199, #186, #111 ) ;
#91 = PERSON_AND_ORGANIZATION ( #33, #150 ) ;
#92 = DIRECTION ( 'NONE',  ( 3.491481338843133355E-15, -1.224646799147353207E-16, 1.000000000000000000 ) ) ;
#93 = CARTESIAN_POINT ( 'NONE',  ( -6.413839710158237013E-31, 0.0000000000000000000, -1.836996703606440502E-16 ) ) ;
#94 = CARTESIAN_POINT ( 'NONE',  ( 2.094888803305880013E-14, -7.658803867012171593E-16, 6.000000000000000000 ) ) ;
#95 = PRODUCT_RELATED_PRODUCT_CATEGORY ( 'detail', '', ( #31 ) ) ;
#96 = CARTESIAN_POINT ( 'NONE',  ( 2.935478058384961210E-31, -0.7499999999999997780, 8.407543313284902931E-17 ) ) ;
#97 = ORIENTED_EDGE ( 'NONE', *, *, #34, .F. ) ;
#98 = ORIENTED_EDGE ( 'NONE', *, *, #182, .T. ) ;
#99 = ORIENTED_EDGE ( 'NONE', *, *, #26, .F. ) ;
#100 = ORIENTED_EDGE ( 'NONE', *, *, #182, .F. ) ;
#101 = CIRCLE ( 'NONE', #161, 0.7499999999999994449 ) ;
#102 = APPROVAL_ROLE ( '' ) ;
#103 = DIRECTION ( 'NONE',  ( 3.491481338843133355E-15, -1.276467311168695266E-16, 1.000000000000000000 ) ) ;
#104 = PERSON_AND_ORGANIZATION ( #33, #150 ) ;
#105 = CARTESIAN_POINT ( 'NONE',  ( 1.042207179644675275E-13, -3.655570695454848748E-15, 29.84999999999999787 ) ) ;
#106 = PERSON_AND_ORGANIZATION_ROLE ( 'creator' ) ;
#107 = APPROVAL ( #35, 'UNSPECIFIED' ) ;
#108 = FACE_OUTER_BOUND ( 'NONE', #151, .T. ) ;
#109 = APPROVAL_PERSON_ORGANIZATION ( #91, #142, #102 ) ;
#110 = COORDINATED_UNIVERSAL_TIME_OFFSET ( 1, 0, .AHEAD. ) ;
#111 = DIRECTION ( 'NONE',  ( 0.0000000000000000000, 1.000000000000000000, 0.0000000000000000000 ) ) ;
#112 = DIRECTION ( 'NONE',  ( 0.0000000000000000000, -1.000000000000000000, 0.0000000000000000000 ) ) ;
#113 = CC_DESIGN_PERSON_AND_ORGANIZATION_ASSIGNMENT ( #184, #138, ( #164 ) ) ;
#114 = AXIS2_PLACEMENT_3D ( 'NONE', #156, #92, #22 ) ;
#115 = CARTESIAN_POINT ( 'NONE',  ( 2.094888803305880013E-14, -0.7500000000000002220, 6.000000000000000000 ) ) ;
#116 = AXIS2_PLACEMENT_3D ( 'NONE', #17, #103, #143 ) ;
#117 =( NAMED_UNIT ( * ) PLANE_ANGLE_UNIT ( ) SI_UNIT ( $, .RADIAN. ) );
#118 = EDGE_LOOP ( 'NONE', ( #100 ) ) ;
#119 = DATE_TIME_ROLE ( 'classification_date' ) ;
#120 = CARTESIAN_POINT ( 'NONE',  ( 1.047444401652940007E-13, -3.673940397442059178E-15, 30.00000000000000000 ) ) ;
#121 = CC_DESIGN_PERSON_AND_ORGANIZATION_ASSIGNMENT ( #73, #18, ( #148 ) ) ;
#122 = CALENDAR_DATE ( 2021, 8, 12 ) ;
#123 = DIRECTION ( 'NONE',  ( -3.491481338843133355E-15, 1.224646799147353207E-16, -1.000000000000000000 ) ) ;
#124 = DIRECTION ( 'NONE',  ( -3.491481338843133355E-15, 1.224646799147353207E-16, -1.000000000000000000 ) ) ;
#125 = CARTESIAN_POINT ( 'NONE',  ( 2.094888803305880013E-14, 1.124819836996386500E-32, 6.000000000000000000 ) ) ;
#126 = CARTESIAN_POINT ( 'NONE',  ( 2.094888803305880013E-14, 1.124819836996386500E-32, 6.000000000000000000 ) ) ;
#127 = CLOSED_SHELL ( 'NONE', ( #216, #81, #173, #201, #147 ) ) ;
#128 = UNCERTAINTY_MEASURE_WITH_UNIT (LENGTH_MEASURE( 1.000000000000000082E-05 ), #85, 'distance_accuracy_value', 'NONE');
#129 = AXIS2_PLACEMENT_3D ( 'NONE', #126, #74, #72 ) ;
#130 = PRODUCT_DEFINITION ( 'UNKNOWN', '', #164, #165 ) ;
#131 = CIRCLE ( 'NONE', #90, 1.349999999999999201 ) ;
#132 = APPROVAL_PERSON_ORGANIZATION ( #30, #175, #39 ) ;
#133 = DATE_AND_TIME ( #16, #10 ) ;
#134 = ORIENTED_EDGE ( 'NONE', *, *, #13, .F. ) ;
#135 = SECURITY_CLASSIFICATION_LEVEL ( 'unclassified' ) ;
#136 = CARTESIAN_POINT ( 'NONE',  ( 2.094888803305880013E-14, -0.7500000000000002220, 6.000000000000000000 ) ) ;
#137 = CC_DESIGN_DATE_AND_TIME_ASSIGNMENT ( #133, #86, ( #130 ) ) ;
#138 = PERSON_AND_ORGANIZATION_ROLE ( 'design_supplier' ) ;
#139 = DIRECTION ( 'NONE',  ( -3.491481338843133355E-15, 1.224646799147353207E-16, -1.000000000000000000 ) ) ;
#140 = DIRECTION ( 'NONE',  ( -4.456761796588769661E-31, -1.000000000000000000, -1.276467311168695019E-16 ) ) ;
#141 = DATE_AND_TIME ( #88, #205 ) ;
#142 = APPROVAL ( #212, 'UNSPECIFIED' ) ;
#143 = DIRECTION ( 'NONE',  ( 0.0000000000000000000, -1.000000000000000000, 0.0000000000000000000 ) ) ;
#144 = PLANE ( 'NONE',  #218 ) ;
#145 = SHAPE_DEFINITION_REPRESENTATION ( #50, #153 ) ;
#146 = CIRCLE ( 'NONE', #221, 0.7499999999999994449 ) ;
#147 = ADVANCED_FACE ( 'NONE', ( #59 ), #57, .F. ) ;
#148 = SECURITY_CLASSIFICATION ( '', '', #135 ) ;
#149 = AXIS2_PLACEMENT_3D ( 'NONE', #195, #158, #23 ) ;
#150 = ORGANIZATION ( 'UNSPECIFIED', 'UNSPECIFIED', '' ) ;
#151 = EDGE_LOOP ( 'NONE', ( #65 ) ) ;
#152 = ORIENTED_EDGE ( 'NONE', *, *, #34, .T. ) ;
#153 = ADVANCED_BREP_SHAPE_REPRESENTATION ( '372570', ( #5, #83, #8 ), #76 ) ;
#154 = PLANE ( 'NONE',  #114 ) ;
#155 = CC_DESIGN_APPROVAL ( #107, ( #148 ) ) ;
#156 = CARTESIAN_POINT ( 'NONE',  ( -8.551629948312533224E-31, 2.999508010305912265E-32, -2.449284162906632724E-16 ) ) ;
#157 = COORDINATED_UNIVERSAL_TIME_OFFSET ( 1, 0, .AHEAD. ) ;
#158 = DIRECTION ( 'NONE',  ( 3.491481338843133355E-15, -1.276467311168695266E-16, 1.000000000000000000 ) ) ;
#159 = CALENDAR_DATE ( 2021, 8, 12 ) ;
#160 = CYLINDRICAL_SURFACE ( 'NONE', #14, 1.499999999999995781 ) ;
#161 = AXIS2_PLACEMENT_3D ( 'NONE', #94, #32, #60 ) ;
#162 = PLANE ( 'NONE',  #63 ) ;
#163 = CC_DESIGN_PERSON_AND_ORGANIZATION_ASSIGNMENT ( #104, #69, ( #164 ) ) ;
#164 = PRODUCT_DEFINITION_FORMATION_WITH_SPECIFIED_SOURCE ( 'ANY', '', #31, .NOT_KNOWN. ) ;
#165 = DESIGN_CONTEXT ( 'detailed design', #61, 'design' ) ;
#166 = CC_DESIGN_SECURITY_CLASSIFICATION ( #148, ( #164 ) ) ;
#167 = ORIENTED_EDGE ( 'NONE', *, *, #26, .T. ) ;
#168 = EDGE_LOOP ( 'NONE', ( #97 ) ) ;
#169 = DIRECTION ( 'NONE',  ( 3.491481338843133355E-15, -1.276467311168695266E-16, 1.000000000000000000 ) ) ;
#170 = APPLICATION_CONTEXT ( 'configuration controlled 3d designs of mechanical parts and assemblies' ) ;
#171 = AXIS2_PLACEMENT_3D ( 'NONE', #105, #123, #7 ) ;
#172 = MECHANICAL_CONTEXT ( 'NONE', #170, 'mechanical' ) ;
#173 = ADVANCED_FACE ( 'NONE', ( #87 ), #144, .F. ) ;
#174 = APPROVAL_DATE_TIME ( #3, #175 ) ;
#175 = APPROVAL ( #67, 'UNSPECIFIED' ) ;
#176 = FACE_OUTER_BOUND ( 'NONE', #51, .T. ) ;
#177 = CIRCLE ( 'NONE', #79, 1.499999999999995781 ) ;
#178 = APPROVAL_ROLE ( '' ) ;
#179 = CARTESIAN_POINT ( 'NONE',  ( 3.072167734573959888E-14, -1.123168451162394383E-15, 8.799038105676633137 ) ) ;
#180 = CARTESIAN_POINT ( 'NONE',  ( 0.0000000000000000000, 0.0000000000000000000, 0.0000000000000000000 ) ) ;
#181 = CARTESIAN_POINT ( 'NONE',  ( 3.072167734573959888E-14, -1.499999999999996669, 8.799038105676633137 ) ) ;
#182 = EDGE_CURVE ( 'NONE', #187, #187, #24, .T. ) ;
#183 = APPROVAL_PERSON_ORGANIZATION ( #21, #107, #178 ) ;
#184 = PERSON_AND_ORGANIZATION ( #33, #150 ) ;
#185 = FACE_BOUND ( 'NONE', #219, .T. ) ;
#186 = DIRECTION ( 'NONE',  ( -3.491481338843133355E-15, 1.224646799147353207E-16, -1.000000000000000000 ) ) ;
#187 = VERTEX_POINT ( 'NONE', #25 ) ;
#188 = CC_DESIGN_PERSON_AND_ORGANIZATION_ASSIGNMENT ( #222, #37, ( #31 ) ) ;
#189 = CARTESIAN_POINT ( 'NONE',  ( 2.094888803305880013E-14, -7.658803867012171593E-16, 6.000000000000000000 ) ) ;
#190 = EDGE_LOOP ( 'NONE', ( #134 ) ) ;
#191 = CIRCLE ( 'NONE', #149, 0.7499999999999997780 ) ;
#192 = APPLICATION_PROTOCOL_DEFINITION ( 'international standard', 'config_control_design', 1994, #61 ) ;
#193 = CARTESIAN_POINT ( 'NONE',  ( 1.047444401652940007E-13, 1.349999999999995426, 30.00000000000000000 ) ) ;
#194 = DIRECTION ( 'NONE',  ( 0.0000000000000000000, 0.0000000000000000000, 1.000000000000000000 ) ) ;
#195 = CARTESIAN_POINT ( 'NONE',  ( 6.278049405826538018E-31, -4.640088260904260933E-32, 1.798104814705011619E-16 ) ) ;
#196 = CALENDAR_DATE ( 2021, 8, 12 ) ;
#197 = CARTESIAN_POINT ( 'NONE',  ( 1.047444401652940007E-13, 1.012337853296747727E-32, 30.00000000000000000 ) ) ;
#198 = CC_DESIGN_APPROVAL ( #142, ( #164 ) ) ;
#199 = CARTESIAN_POINT ( 'NONE',  ( 1.047444401652940007E-13, -3.673940397442059178E-15, 30.00000000000000000 ) ) ;
#200 = VERTEX_POINT ( 'NONE', #96 ) ;
#201 = ADVANCED_FACE ( 'NONE', ( #185, #89 ), #49, .T. ) ;
#202 = ADVANCED_FACE ( 'NONE', ( #108 ), #154, .F. ) ;
#203 = EDGE_LOOP ( 'NONE', ( #48 ) ) ;
#204 = EDGE_CURVE ( 'NONE', #200, #200, #191, .T. ) ;
#205 = LOCAL_TIME ( 9, 40, 5.000000000000000000, #75 ) ;
#206 = CONICAL_SURFACE ( 'NONE', #11, 1.349999999999999201, 0.7853981633974453924 ) ;
#207 = EDGE_LOOP ( 'NONE', ( #98 ) ) ;
#208 = COORDINATED_UNIVERSAL_TIME_OFFSET ( 1, 0, .AHEAD. ) ;
#209 = VERTEX_POINT ( 'NONE', #181 ) ;
#210 =( NAMED_UNIT ( * ) SI_UNIT ( $, .STERADIAN. ) SOLID_ANGLE_UNIT ( ) );
#211 = FACE_OUTER_BOUND ( 'NONE', #220, .T. ) ;
#212 = APPROVAL_STATUS ( 'not_yet_approved' ) ;
#213 = DIRECTION ( 'NONE',  ( 3.491481338843133355E-15, -1.276467311168695266E-16, 1.000000000000000000 ) ) ;
#214 = DIRECTION ( 'NONE',  ( 4.275831445896958607E-31, 1.000000000000000000, 1.224646799147353207E-16 ) ) ;
#215 = DIRECTION ( 'NONE',  ( -4.275831445896958607E-31, -1.000000000000000000, -1.224646799147353207E-16 ) ) ;
#216 = ADVANCED_FACE ( 'NONE', ( #2, #44 ), #160, .T. ) ;
#217 = ADVANCED_FACE ( 'NONE', ( #77 ), #162, .T. ) ;
#218 = AXIS2_PLACEMENT_3D ( 'NONE', #197, #139, #19 ) ;
#219 = EDGE_LOOP ( 'NONE', ( #12 ) ) ;
#220 = EDGE_LOOP ( 'NONE', ( #68 ) ) ;
#221 = AXIS2_PLACEMENT_3D ( 'NONE', #189, #169, #112 ) ;
#222 = PERSON_AND_ORGANIZATION ( #33, #150 ) ;
#223 = CARTESIAN_POINT ( 'NONE',  ( 0.0000000000000000000, 0.0000000000000000000, 0.0000000000000000000 ) ) ;
ENDSEC;
END-ISO-10303-21;
