ISO-10303-21;
HEADER;
FILE_DESCRIPTION (( 'STEP AP203' ),
    '1' );
FILE_NAME ('372569.step',
    '2021-12-08T08:40:04',
    ( '' ),
    ( '' ),
    'SwSTEP 2.0',
    'SolidWorks 2019',
    '' );
FILE_SCHEMA (( 'CONFIG_CONTROL_DESIGN' ));
ENDSEC;

DATA;
#1 = PERSON_AND_ORGANIZATION_ROLE ( 'design_supplier' ) ;
#2 = DIRECTION ( 'NONE',  ( -3.491481338843133355E-15, 1.276467311168695266E-16, -1.000000000000000000 ) ) ;
#3 = EDGE_LOOP ( 'NONE', ( #32 ) ) ;
#4 = FACE_OUTER_BOUND ( 'NONE', #104, .T. ) ;
#5 = PERSON_AND_ORGANIZATION ( #168, #100 ) ;
#6 = DIRECTION ( 'NONE',  ( -3.491481338843133355E-15, 1.224646799147353207E-16, -1.000000000000000000 ) ) ;
#7 = VERTEX_POINT ( 'NONE', #183 ) ;
#8 = APPROVAL_PERSON_ORGANIZATION ( #180, #127, #98 ) ;
#9 = CARTESIAN_POINT ( 'NONE',  ( 1.326762908760390423E-13, -4.653657836759941941E-15, 38.00000000000000000 ) ) ;
#10 = CIRCLE ( 'NONE', #181, 0.4999999999999962252 ) ;
#11 = AXIS2_PLACEMENT_3D ( 'NONE', #103, #72, #210 ) ;
#12 = ORIENTED_EDGE ( 'NONE', *, *, #202, .T. ) ;
#13 = CARTESIAN_POINT ( 'NONE',  ( 6.323281993499491219E-31, -4.656625058315077877E-32, 1.811059942710347195E-16 ) ) ;
#14 = FACE_OUTER_BOUND ( 'NONE', #188, .T. ) ;
#15 = CARTESIAN_POINT ( 'NONE',  ( 0.0000000000000000000, 0.0000000000000000000, 0.0000000000000000000 ) ) ;
#16 = AXIS2_PLACEMENT_3D ( 'NONE', #203, #219, #67 ) ;
#17 = PLANE ( 'NONE',  #83 ) ;
#18 = AXIS2_PLACEMENT_3D ( 'NONE', #92, #128, #109 ) ;
#19 = DATE_AND_TIME ( #131, #126 ) ;
#20 = DIRECTION ( 'NONE',  ( -3.491481338843133355E-15, 1.224646799147353207E-16, -1.000000000000000000 ) ) ;
#21 = APPROVAL_DATE_TIME ( #38, #45 ) ;
#22 = VERTEX_POINT ( 'NONE', #101 ) ;
#23 = PERSON_AND_ORGANIZATION_ROLE ( 'classification_officer' ) ;
#24 = APPROVAL_STATUS ( 'not_yet_approved' ) ;
#25 = APPROVAL_PERSON_ORGANIZATION ( #5, #152, #177 ) ;
#26 = ADVANCED_FACE ( 'NONE', ( #106, #159 ), #55, .T. ) ;
#27 = AXIS2_PLACEMENT_3D ( 'NONE', #77, #171, #172 ) ;
#28 = EDGE_LOOP ( 'NONE', ( #12 ) ) ;
#29 = CARTESIAN_POINT ( 'NONE',  ( 1.326762908760390423E-13, 1.049831847863294167E-32, 38.00000000000000000 ) ) ;
#30 = CLOSED_SHELL ( 'NONE', ( #26, #216, #33, #138, #167 ) ) ;
#31 = EDGE_LOOP ( 'NONE', ( #41 ) ) ;
#32 = ORIENTED_EDGE ( 'NONE', *, *, #81, .F. ) ;
#33 = ADVANCED_FACE ( 'NONE', ( #209 ), #162, .F. ) ;
#34 = APPROVAL_STATUS ( 'not_yet_approved' ) ;
#35 = FACE_OUTER_BOUND ( 'NONE', #65, .T. ) ;
#36 = CC_DESIGN_DATE_AND_TIME_ASSIGNMENT ( #129, #155, ( #49 ) ) ;
#37 = CC_DESIGN_APPROVAL ( #45, ( #49 ) ) ;
#38 = DATE_AND_TIME ( #124, #211 ) ;
#39 = CARTESIAN_POINT ( 'NONE',  ( -8.551673138061656679E-31, 2.999523159230648356E-32, -2.449296532942423483E-16 ) ) ;
#40 = FACE_BOUND ( 'NONE', #28, .T. ) ;
#41 = ORIENTED_EDGE ( 'NONE', *, *, #207, .F. ) ;
#42 = COORDINATED_UNIVERSAL_TIME_OFFSET ( 1, 0, .AHEAD. ) ;
#43 = VERTEX_POINT ( 'NONE', #163 ) ;
#44 = CARTESIAN_POINT ( 'NONE',  ( 4.094901095205124781E-31, -0.4999999999999956701, 1.172826287126004986E-16 ) ) ;
#45 = APPROVAL ( #136, 'UNSPECIFIED' ) ;
#46 = DESIGN_CONTEXT ( 'detailed design', #214, 'design' ) ;
#47 = ORIENTED_EDGE ( 'NONE', *, *, #202, .F. ) ;
#48 = CIRCLE ( 'NONE', #105, 0.4999999999999962252 ) ;
#49 = SECURITY_CLASSIFICATION ( '', '', #58 ) ;
#50 = EDGE_LOOP ( 'NONE', ( #47 ) ) ;
#51 = PRODUCT_DEFINITION_SHAPE ( 'NONE', 'NONE',  #187 ) ;
#52 = CARTESIAN_POINT ( 'NONE',  ( 2.699631110561367626E-14, -9.869710104157170335E-16, 7.732050807568866979 ) ) ;
#53 = ADVANCED_FACE ( 'NONE', ( #139, #206 ), #75, .T. ) ;
#54 = DIRECTION ( 'NONE',  ( -3.491481338843133355E-15, 1.224646799147353207E-16, -1.000000000000000000 ) ) ;
#55 = CYLINDRICAL_SURFACE ( 'NONE', #213, 1.499999999999996225 ) ;
#56 = PLANE ( 'NONE',  #86 ) ;
#57 = VERTEX_POINT ( 'NONE', #80 ) ;
#58 = SECURITY_CLASSIFICATION_LEVEL ( 'unclassified' ) ;
#59 = PERSON_AND_ORGANIZATION ( #168, #100 ) ;
#60 = APPROVAL_DATE_TIME ( #212, #127 ) ;
#61 =( LENGTH_UNIT ( ) NAMED_UNIT ( * ) SI_UNIT ( .MILLI., .METRE. ) );
#62 = CC_DESIGN_PERSON_AND_ORGANIZATION_ASSIGNMENT ( #179, #160, ( #187 ) ) ;
#63 = EDGE_LOOP ( 'NONE', ( #223 ) ) ;
#64 = CC_DESIGN_PERSON_AND_ORGANIZATION_ASSIGNMENT ( #69, #23, ( #49 ) ) ;
#65 = EDGE_LOOP ( 'NONE', ( #170 ) ) ;
#66 = MANIFOLD_SOLID_BREP ( 'Corps-Déplacer/Copier1[1]', #30 ) ;
#67 = DIRECTION ( 'NONE',  ( -4.275831445896958607E-31, -1.000000000000000000, -1.224646799147353207E-16 ) ) ;
#68 = EDGE_LOOP ( 'NONE', ( #94 ) ) ;
#69 = PERSON_AND_ORGANIZATION ( #168, #100 ) ;
#70 = DIRECTION ( 'NONE',  ( 0.0000000000000000000, -1.000000000000000000, 0.0000000000000000000 ) ) ;
#71 = DATE_TIME_ROLE ( 'creation_date' ) ;
#72 = DIRECTION ( 'NONE',  ( 3.491481338843133355E-15, -1.276467311168695266E-16, 1.000000000000000000 ) ) ;
#73 = PRODUCT ( '372569', '372569', '', ( #166 ) ) ;
#74 = MANIFOLD_SOLID_BREP ( 'Corps-Déplacer/Copier1[2]', #97 ) ;
#75 = CYLINDRICAL_SURFACE ( 'NONE', #11, 0.4999999999999958922 ) ;
#76 = PERSON_AND_ORGANIZATION ( #168, #100 ) ;
#77 = CARTESIAN_POINT ( 'NONE',  ( 7.911785410657824128E-14, -2.892507354208672151E-15, 22.66025403784432868 ) ) ;
#78 = COORDINATED_UNIVERSAL_TIME_OFFSET ( 1, 0, .AHEAD. ) ;
#79 = AXIS2_PLACEMENT_3D ( 'NONE', #9, #6, #111 ) ;
#80 = CARTESIAN_POINT ( 'NONE',  ( 1.323271427421547605E-13, 1.499999999999996447, 37.89999999999999858 ) ) ;
#81 = EDGE_CURVE ( 'NONE', #22, #22, #10, .T. ) ;
#82 = UNCERTAINTY_MEASURE_WITH_UNIT (LENGTH_MEASURE( 1.000000000000000082E-05 ), #61, 'distance_accuracy_value', 'NONE');
#83 = AXIS2_PLACEMENT_3D ( 'NONE', #192, #194, #89 ) ;
#84 = APPLICATION_CONTEXT ( 'configuration controlled 3d designs of mechanical parts and assemblies' ) ;
#85 = CC_DESIGN_PERSON_AND_ORGANIZATION_ASSIGNMENT ( #95, #1, ( #165 ) ) ;
#86 = AXIS2_PLACEMENT_3D ( 'NONE', #39, #107, #156 ) ;
#87 = DIRECTION ( 'NONE',  ( 3.491481338843133355E-15, -1.276467311168695266E-16, 1.000000000000000000 ) ) ;
#88 = ORIENTED_EDGE ( 'NONE', *, *, #158, .F. ) ;
#89 = DIRECTION ( 'NONE',  ( -4.275831445896958607E-31, -1.000000000000000000, -1.224646799147353207E-16 ) ) ;
#90 = CARTESIAN_POINT ( 'NONE',  ( 1.396592535537253342E-14, -5.105869244674781062E-16, 4.000000000000000000 ) ) ;
#91 = PERSON_AND_ORGANIZATION ( #168, #100 ) ;
#92 = CARTESIAN_POINT ( 'NONE',  ( 1.323271427421547605E-13, -4.641411368768468584E-15, 37.89999999999999858 ) ) ;
#93 = COORDINATED_UNIVERSAL_TIME_OFFSET ( 1, 0, .AHEAD. ) ;
#94 = ORIENTED_EDGE ( 'NONE', *, *, #158, .T. ) ;
#95 = PERSON_AND_ORGANIZATION ( #168, #100 ) ;
#96 = DIRECTION ( 'NONE',  ( 0.0000000000000000000, 0.0000000000000000000, 1.000000000000000000 ) ) ;
#97 = CLOSED_SHELL ( 'NONE', ( #117, #53, #150 ) ) ;
#98 = APPROVAL_ROLE ( '' ) ;
#99 =( NAMED_UNIT ( * ) SI_UNIT ( $, .STERADIAN. ) SOLID_ANGLE_UNIT ( ) );
#100 = ORGANIZATION ( 'UNSPECIFIED', 'UNSPECIFIED', '' ) ;
#101 = CARTESIAN_POINT ( 'NONE',  ( 1.396592535537253342E-14, -0.4999999999999967804, 4.000000000000000000 ) ) ;
#102 = ORIENTED_EDGE ( 'NONE', *, *, #186, .F. ) ;
#103 = CARTESIAN_POINT ( 'NONE',  ( -6.413839710158237013E-31, 0.0000000000000000000, -1.836996703606440502E-16 ) ) ;
#104 = EDGE_LOOP ( 'NONE', ( #161 ) ) ;
#105 = AXIS2_PLACEMENT_3D ( 'NONE', #122, #191, #137 ) ;
#106 = FACE_OUTER_BOUND ( 'NONE', #63, .T. ) ;
#107 = DIRECTION ( 'NONE',  ( 3.491481338843133355E-15, -1.224646799147353207E-16, 1.000000000000000000 ) ) ;
#108 = CC_DESIGN_DATE_AND_TIME_ASSIGNMENT ( #19, #71, ( #187 ) ) ;
#109 = DIRECTION ( 'NONE',  ( 0.0000000000000000000, 1.000000000000000000, 0.0000000000000000000 ) ) ;
#110 = SHAPE_DEFINITION_REPRESENTATION ( #51, #134 ) ;
#111 = DIRECTION ( 'NONE',  ( 0.0000000000000000000, 1.000000000000000000, 0.0000000000000000000 ) ) ;
#112 = PERSON_AND_ORGANIZATION_ROLE ( 'creator' ) ;
#113 = VERTEX_POINT ( 'NONE', #130 ) ;
#114 = AXIS2_PLACEMENT_3D ( 'NONE', #29, #196, #222 ) ;
#115 = CARTESIAN_POINT ( 'NONE',  ( 0.0000000000000000000, 0.0000000000000000000, 0.0000000000000000000 ) ) ;
#116 = APPLICATION_PROTOCOL_DEFINITION ( 'international standard', 'config_control_design', 1994, #84 ) ;
#117 = ADVANCED_FACE ( 'NONE', ( #4 ), #17, .T. ) ;
#118 = AXIS2_PLACEMENT_3D ( 'NONE', #52, #2, #70 ) ;
#119 = CC_DESIGN_PERSON_AND_ORGANIZATION_ASSIGNMENT ( #91, #112, ( #165 ) ) ;
#120 = CIRCLE ( 'NONE', #18, 1.500000000000000888 ) ;
#121 = EDGE_LOOP ( 'NONE', ( #220 ) ) ;
#122 = CARTESIAN_POINT ( 'NONE',  ( 1.396592535537253342E-14, -5.105869244674781062E-16, 4.000000000000000000 ) ) ;
#123 = DIRECTION ( 'NONE',  ( 0.0000000000000000000, 1.000000000000000000, 0.0000000000000000000 ) ) ;
#124 = CALENDAR_DATE ( 2021, 8, 12 ) ;
#125 = DIRECTION ( 'NONE',  ( 0.0000000000000000000, -1.000000000000000000, 0.0000000000000000000 ) ) ;
#126 = LOCAL_TIME ( 9, 40, 4.000000000000000000, #42 ) ;
#127 = APPROVAL ( #24, 'UNSPECIFIED' ) ;
#128 = DIRECTION ( 'NONE',  ( -3.491481338843133355E-15, 1.224646799147353207E-16, -1.000000000000000000 ) ) ;
#129 = DATE_AND_TIME ( #197, #174 ) ;
#130 = CARTESIAN_POINT ( 'NONE',  ( 1.326762908760390423E-13, 1.399999999999996358, 38.00000000000000000 ) ) ;
#131 = CALENDAR_DATE ( 2021, 8, 12 ) ;
#132 = PERSON_AND_ORGANIZATION_ROLE ( 'design_owner' ) ;
#133 = VERTEX_POINT ( 'NONE', #44 ) ;
#134 = ADVANCED_BREP_SHAPE_REPRESENTATION ( '372569', ( #66, #74, #146 ), #147 ) ;
#135 = DIRECTION ( 'NONE',  ( -4.456761796588771413E-31, -1.000000000000000000, -1.276467311168695266E-16 ) ) ;
#136 = APPROVAL_STATUS ( 'not_yet_approved' ) ;
#137 = DIRECTION ( 'NONE',  ( 0.0000000000000000000, -1.000000000000000000, 0.0000000000000000000 ) ) ;
#138 = ADVANCED_FACE ( 'NONE', ( #40, #141 ), #144, .T. ) ;
#139 = FACE_OUTER_BOUND ( 'NONE', #68, .T. ) ;
#140 = COORDINATED_UNIVERSAL_TIME_OFFSET ( 1, 0, .AHEAD. ) ;
#141 = FACE_OUTER_BOUND ( 'NONE', #121, .T. ) ;
#142 = APPROVAL_ROLE ( '' ) ;
#143 = DIRECTION ( 'NONE',  ( 3.491481338843133355E-15, -1.276467311168695266E-16, 1.000000000000000000 ) ) ;
#144 = CONICAL_SURFACE ( 'NONE', #27, 5.499999999999995559, 0.2617993877991501850 ) ;
#145 = CALENDAR_DATE ( 2021, 8, 12 ) ;
#146 = AXIS2_PLACEMENT_3D ( 'NONE', #115, #96, #178 ) ;
#147 =( GEOMETRIC_REPRESENTATION_CONTEXT ( 3 ) GLOBAL_UNCERTAINTY_ASSIGNED_CONTEXT ( ( #82 ) ) GLOBAL_UNIT_ASSIGNED_CONTEXT ( ( #61, #149, #99 ) ) REPRESENTATION_CONTEXT ( 'NONE', 'WORKASPACE' ) );
#148 = CIRCLE ( 'NONE', #118, 1.499999999999996225 ) ;
#149 =( NAMED_UNIT ( * ) PLANE_ANGLE_UNIT ( ) SI_UNIT ( $, .RADIAN. ) );
#150 = ADVANCED_FACE ( 'NONE', ( #14 ), #56, .F. ) ;
#151 = CIRCLE ( 'NONE', #218, 0.4999999999999956701 ) ;
#152 = APPROVAL ( #34, 'UNSPECIFIED' ) ;
#153 = FACE_OUTER_BOUND ( 'NONE', #50, .T. ) ;
#154 = EDGE_CURVE ( 'NONE', #57, #57, #120, .T. ) ;
#155 = DATE_TIME_ROLE ( 'classification_date' ) ;
#156 = DIRECTION ( 'NONE',  ( -4.275831445896958607E-31, -1.000000000000000000, -1.224646799147353207E-16 ) ) ;
#157 = EDGE_LOOP ( 'NONE', ( #102 ) ) ;
#158 = EDGE_CURVE ( 'NONE', #133, #133, #151, .T. ) ;
#159 = FACE_OUTER_BOUND ( 'NONE', #157, .T. ) ;
#160 = PERSON_AND_ORGANIZATION_ROLE ( 'creator' ) ;
#161 = ORIENTED_EDGE ( 'NONE', *, *, #81, .T. ) ;
#162 = PLANE ( 'NONE',  #114 ) ;
#163 = CARTESIAN_POINT ( 'NONE',  ( 1.396592535537253342E-14, -0.4999999999999967804, 4.000000000000000000 ) ) ;
#164 = LOCAL_TIME ( 9, 40, 4.000000000000000000, #78 ) ;
#165 = PRODUCT_DEFINITION_FORMATION_WITH_SPECIFIED_SOURCE ( 'ANY', '', #73, .NOT_KNOWN. ) ;
#166 = MECHANICAL_CONTEXT ( 'NONE', #84, 'mechanical' ) ;
#167 = ADVANCED_FACE ( 'NONE', ( #153 ), #176, .F. ) ;
#168 = PERSON ( 'UNSPECIFIED', 'UNSPECIFIED', 'UNSPECIFIED', ('UNSPECIFIED'), ('UNSPECIFIED'), ('UNSPECIFIED') ) ;
#169 = LOCAL_TIME ( 9, 40, 4.000000000000000000, #140 ) ;
#170 = ORIENTED_EDGE ( 'NONE', *, *, #154, .F. ) ;
#171 = DIRECTION ( 'NONE',  ( 3.491481338843133355E-15, -1.276467311168695266E-16, 1.000000000000000000 ) ) ;
#172 = DIRECTION ( 'NONE',  ( 0.0000000000000000000, -1.000000000000000000, 0.0000000000000000000 ) ) ;
#173 = CIRCLE ( 'NONE', #201, 1.400000000000000799 ) ;
#174 = LOCAL_TIME ( 9, 40, 4.000000000000000000, #93 ) ;
#175 = FACE_BOUND ( 'NONE', #190, .T. ) ;
#176 = PLANE ( 'NONE',  #16 ) ;
#177 = APPROVAL_ROLE ( '' ) ;
#178 = DIRECTION ( 'NONE',  ( 1.000000000000000000, 0.0000000000000000000, 0.0000000000000000000 ) ) ;
#179 = PERSON_AND_ORGANIZATION ( #168, #100 ) ;
#180 = PERSON_AND_ORGANIZATION ( #168, #100 ) ;
#181 = AXIS2_PLACEMENT_3D ( 'NONE', #90, #143, #125 ) ;
#182 = PRODUCT_RELATED_PRODUCT_CATEGORY ( 'detail', '', ( #73 ) ) ;
#183 = CARTESIAN_POINT ( 'NONE',  ( 2.699631110561367626E-14, -1.499999999999997113, 7.732050807568866979 ) ) ;
#184 = APPROVAL_PERSON_ORGANIZATION ( #76, #45, #142 ) ;
#185 = ORIENTED_EDGE ( 'NONE', *, *, #207, .T. ) ;
#186 = EDGE_CURVE ( 'NONE', #7, #7, #148, .T. ) ;
#187 = PRODUCT_DEFINITION ( 'UNKNOWN', '', #165, #46 ) ;
#188 = EDGE_LOOP ( 'NONE', ( #88 ) ) ;
#189 = DIRECTION ( 'NONE',  ( 4.275831445896958607E-31, 1.000000000000000000, 1.224646799147353207E-16 ) ) ;
#190 = EDGE_LOOP ( 'NONE', ( #185 ) ) ;
#191 = DIRECTION ( 'NONE',  ( 3.491481338843133355E-15, -1.276467311168695266E-16, 1.000000000000000000 ) ) ;
#192 = CARTESIAN_POINT ( 'NONE',  ( 1.396592535537253342E-14, 1.124819836996385816E-32, 4.000000000000000000 ) ) ;
#193 = CONICAL_SURFACE ( 'NONE', #79, 1.400000000000000799, 0.7853981633974341792 ) ;
#194 = DIRECTION ( 'NONE',  ( 3.491481338843133355E-15, -1.224646799147353207E-16, 1.000000000000000000 ) ) ;
#195 = DATE_AND_TIME ( #221, #169 ) ;
#196 = DIRECTION ( 'NONE',  ( -3.491481338843133355E-15, 1.224646799147353207E-16, -1.000000000000000000 ) ) ;
#197 = CALENDAR_DATE ( 2021, 8, 12 ) ;
#198 = APPLICATION_PROTOCOL_DEFINITION ( 'international standard', 'config_control_design', 1994, #214 ) ;
#199 = CC_DESIGN_PERSON_AND_ORGANIZATION_ASSIGNMENT ( #59, #132, ( #73 ) ) ;
#200 = CC_DESIGN_APPROVAL ( #127, ( #187 ) ) ;
#201 = AXIS2_PLACEMENT_3D ( 'NONE', #205, #54, #123 ) ;
#202 = EDGE_CURVE ( 'NONE', #43, #43, #48, .T. ) ;
#203 = CARTESIAN_POINT ( 'NONE',  ( 1.396592535537253342E-14, 1.124819836996385816E-32, 4.000000000000000000 ) ) ;
#204 = COORDINATED_UNIVERSAL_TIME_OFFSET ( 1, 0, .AHEAD. ) ;
#205 = CARTESIAN_POINT ( 'NONE',  ( 1.326762908760390423E-13, -4.653657836759941941E-15, 38.00000000000000000 ) ) ;
#206 = FACE_OUTER_BOUND ( 'NONE', #3, .T. ) ;
#207 = EDGE_CURVE ( 'NONE', #113, #113, #173, .T. ) ;
#208 = APPROVAL_DATE_TIME ( #195, #152 ) ;
#209 = FACE_OUTER_BOUND ( 'NONE', #31, .T. ) ;
#210 = DIRECTION ( 'NONE',  ( -4.456761796588769661E-31, -1.000000000000000000, -1.276467311168695266E-16 ) ) ;
#211 = LOCAL_TIME ( 9, 40, 4.000000000000000000, #204 ) ;
#212 = DATE_AND_TIME ( #145, #164 ) ;
#213 = AXIS2_PLACEMENT_3D ( 'NONE', #15, #20, #189 ) ;
#214 = APPLICATION_CONTEXT ( 'configuration controlled 3d designs of mechanical parts and assemblies' ) ;
#215 = CC_DESIGN_SECURITY_CLASSIFICATION ( #49, ( #165 ) ) ;
#216 = ADVANCED_FACE ( 'NONE', ( #35, #175 ), #193, .T. ) ;
#217 = CC_DESIGN_APPROVAL ( #152, ( #165 ) ) ;
#218 = AXIS2_PLACEMENT_3D ( 'NONE', #13, #87, #135 ) ;
#219 = DIRECTION ( 'NONE',  ( 3.491481338843133355E-15, -1.224646799147353207E-16, 1.000000000000000000 ) ) ;
#220 = ORIENTED_EDGE ( 'NONE', *, *, #186, .T. ) ;
#221 = CALENDAR_DATE ( 2021, 8, 12 ) ;
#222 = DIRECTION ( 'NONE',  ( 4.275831445896958607E-31, 1.000000000000000000, 1.224646799147353207E-16 ) ) ;
#223 = ORIENTED_EDGE ( 'NONE', *, *, #154, .T. ) ;
ENDSEC;
END-ISO-10303-21;
