ISO-10303-21;
HEADER;
FILE_DESCRIPTION (( 'STEP AP203' ),
    '1' );
FILE_NAME ('372568.step',
    '2021-12-08T08:40:04',
    ( '' ),
    ( '' ),
    'SwSTEP 2.0',
    'SolidWorks 2019',
    '' );
FILE_SCHEMA (( 'CONFIG_CONTROL_DESIGN' ));
ENDSEC;

DATA;
#1 = CC_DESIGN_DATE_AND_TIME_ASSIGNMENT ( #161, #141, ( #173 ) ) ;
#2 = DIRECTION ( 'NONE',  ( 1.000000000000000000, 0.0000000000000000000, 0.0000000000000000000 ) ) ;
#3 = ORIENTED_EDGE ( 'NONE', *, *, #25, .T. ) ;
#4 = AXIS2_PLACEMENT_3D ( 'NONE', #167, #6, #215 ) ;
#5 = FACE_OUTER_BOUND ( 'NONE', #114, .T. ) ;
#6 = DIRECTION ( 'NONE',  ( 3.491481338843133355E-15, -1.276467311168695266E-16, 1.000000000000000000 ) ) ;
#7 = PRODUCT_DEFINITION_FORMATION_WITH_SPECIFIED_SOURCE ( 'ANY', '', #133, .NOT_KNOWN. ) ;
#8 = DIRECTION ( 'NONE',  ( 3.491481338843133355E-15, -1.276467311168695266E-16, 1.000000000000000000 ) ) ;
#9 = ORIENTED_EDGE ( 'NONE', *, *, #176, .T. ) ;
#10 = CARTESIAN_POINT ( 'NONE',  ( 1.396592535537253342E-14, -5.105869244674781062E-16, 4.000000000000000000 ) ) ;
#11 = CARTESIAN_POINT ( 'NONE',  ( 1.396592535537253342E-14, 1.124819836996385406E-32, 4.000000000000000000 ) ) ;
#12 = PRODUCT_DEFINITION ( 'UNKNOWN', '', #7, #189 ) ;
#13 = ORIENTED_EDGE ( 'NONE', *, *, #203, .T. ) ;
#14 = EDGE_LOOP ( 'NONE', ( #32 ) ) ;
#15 = AXIS2_PLACEMENT_3D ( 'NONE', #199, #188, #2 ) ;
#16 = PERSON_AND_ORGANIZATION ( #73, #123 ) ;
#17 = CONICAL_SURFACE ( 'NONE', #217, 5.499999999999995559, 0.2617993877991501850 ) ;
#18 = DATE_AND_TIME ( #171, #100 ) ;
#19 = ADVANCED_FACE ( 'NONE', ( #111 ), #44, .F. ) ;
#20 = ORIENTED_EDGE ( 'NONE', *, *, #196, .F. ) ;
#21 = PERSON_AND_ORGANIZATION ( #73, #123 ) ;
#22 = CIRCLE ( 'NONE', #150, 1.499999999999994227 ) ;
#23 = ORIENTED_EDGE ( 'NONE', *, *, #196, .T. ) ;
#24 = PERSON_AND_ORGANIZATION ( #73, #123 ) ;
#25 = EDGE_CURVE ( 'NONE', #105, #105, #85, .T. ) ;
#26 = PRODUCT_RELATED_PRODUCT_CATEGORY ( 'detail', '', ( #133 ) ) ;
#27 = DIRECTION ( 'NONE',  ( -3.491481338843133355E-15, 1.224646799147353207E-16, -1.000000000000000000 ) ) ;
#28 = CC_DESIGN_APPROVAL ( #137, ( #12 ) ) ;
#29 = AXIS2_PLACEMENT_3D ( 'NONE', #43, #152, #213 ) ;
#30 = FACE_OUTER_BOUND ( 'NONE', #14, .T. ) ;
#31 = DIRECTION ( 'NONE',  ( -4.275831445896958607E-31, -1.000000000000000000, -1.224646799147353207E-16 ) ) ;
#32 = ORIENTED_EDGE ( 'NONE', *, *, #58, .F. ) ;
#33 = PERSON_AND_ORGANIZATION_ROLE ( 'creator' ) ;
#34 = EDGE_CURVE ( 'NONE', #144, #144, #22, .T. ) ;
#35 = AXIS2_PLACEMENT_3D ( 'NONE', #214, #59, #191 ) ;
#36 = SHAPE_DEFINITION_REPRESENTATION ( #86, #47 ) ;
#37 = PERSON_AND_ORGANIZATION_ROLE ( 'creator' ) ;
#38 = APPROVAL_STATUS ( 'not_yet_approved' ) ;
#39 = ORIENTED_EDGE ( 'NONE', *, *, #176, .F. ) ;
#40 = DIRECTION ( 'NONE',  ( 4.275831445896958607E-31, 1.000000000000000000, 1.224646799147353207E-16 ) ) ;
#41 = ADVANCED_FACE ( 'NONE', ( #180, #126 ), #101, .T. ) ;
#42 = FACE_BOUND ( 'NONE', #206, .T. ) ;
#43 = CARTESIAN_POINT ( 'NONE',  ( -8.551680453529347297E-31, 2.999525725151305995E-32, -2.449298628175644310E-16 ) ) ;
#44 = PLANE ( 'NONE',  #29 ) ;
#45 = LOCAL_TIME ( 9, 40, 4.000000000000000000, #223 ) ;
#46 = CARTESIAN_POINT ( 'NONE',  ( 1.396592535537253342E-14, -0.4999999999999967804, 4.000000000000000000 ) ) ;
#47 = ADVANCED_BREP_SHAPE_REPRESENTATION ( '372568', ( #71, #140, #15 ), #115 ) ;
#48 = DIRECTION ( 'NONE',  ( 0.0000000000000000000, 1.000000000000000000, 0.0000000000000000000 ) ) ;
#49 = CC_DESIGN_PERSON_AND_ORGANIZATION_ASSIGNMENT ( #24, #33, ( #12 ) ) ;
#50 = DATE_TIME_ROLE ( 'creation_date' ) ;
#51 = CALENDAR_DATE ( 2021, 8, 12 ) ;
#52 = CALENDAR_DATE ( 2021, 8, 12 ) ;
#53 = CC_DESIGN_APPROVAL ( #183, ( #173 ) ) ;
#54 = PERSON_AND_ORGANIZATION ( #73, #123 ) ;
#55 = CIRCLE ( 'NONE', #132, 1.399999999999993916 ) ;
#56 = VERTEX_POINT ( 'NONE', #162 ) ;
#57 = CC_DESIGN_DATE_AND_TIME_ASSIGNMENT ( #18, #50, ( #12 ) ) ;
#58 = EDGE_CURVE ( 'NONE', #222, #222, #74, .T. ) ;
#59 = DIRECTION ( 'NONE',  ( -3.491481338843133355E-15, 1.276467311168695266E-16, -1.000000000000000000 ) ) ;
#60 = DIRECTION ( 'NONE',  ( 3.491481338843133355E-15, -1.276467311168695266E-16, 1.000000000000000000 ) ) ;
#61 = DIRECTION ( 'NONE',  ( 3.491481338843133355E-15, -1.276467311168695266E-16, 1.000000000000000000 ) ) ;
#62 = EDGE_LOOP ( 'NONE', ( #155 ) ) ;
#63 = DIRECTION ( 'NONE',  ( -4.275831445896958607E-31, -1.000000000000000000, -1.224646799147353207E-16 ) ) ;
#64 = EDGE_LOOP ( 'NONE', ( #94 ) ) ;
#65 = CONICAL_SURFACE ( 'NONE', #220, 1.399999999999993916, 0.7853981633974352894 ) ;
#66 = EDGE_LOOP ( 'NONE', ( #20 ) ) ;
#67 = ADVANCED_FACE ( 'NONE', ( #127 ), #192, .T. ) ;
#68 = CARTESIAN_POINT ( 'NONE',  ( 1.396592535537253342E-14, -0.4999999999999967804, 4.000000000000000000 ) ) ;
#69 = COORDINATED_UNIVERSAL_TIME_OFFSET ( 1, 0, .AHEAD. ) ;
#70 = APPROVAL_DATE_TIME ( #201, #183 ) ;
#71 = MANIFOLD_SOLID_BREP ( 'Corps-Déplacer/Copier1[1]', #134 ) ;
#72 = APPLICATION_CONTEXT ( 'configuration controlled 3d designs of mechanical parts and assemblies' ) ;
#73 = PERSON ( 'UNSPECIFIED', 'UNSPECIFIED', 'UNSPECIFIED', ('UNSPECIFIED'), ('UNSPECIFIED'), ('UNSPECIFIED') ) ;
#74 = CIRCLE ( 'NONE', #209, 0.4999999999999962252 ) ;
#75 = DIRECTION ( 'NONE',  ( 4.275831445896958607E-31, 1.000000000000000000, 1.224646799147353207E-16 ) ) ;
#76 = CARTESIAN_POINT ( 'NONE',  ( 1.047444401652940007E-13, -3.673940397442059178E-15, 30.00000000000000000 ) ) ;
#77 = APPROVAL_PERSON_ORGANIZATION ( #187, #183, #208 ) ;
#78 = DIRECTION ( 'NONE',  ( 0.0000000000000000000, 1.000000000000000000, 0.0000000000000000000 ) ) ;
#79 = DIRECTION ( 'NONE',  ( -3.491481338843133355E-15, 1.224646799147353207E-16, -1.000000000000000000 ) ) ;
#80 = FACE_OUTER_BOUND ( 'NONE', #66, .T. ) ;
#81 = EDGE_LOOP ( 'NONE', ( #23 ) ) ;
#82 = APPROVAL ( #202, 'UNSPECIFIED' ) ;
#83 = EDGE_LOOP ( 'NONE', ( #99 ) ) ;
#84 = CC_DESIGN_SECURITY_CLASSIFICATION ( #173, ( #7 ) ) ;
#85 = CIRCLE ( 'NONE', #116, 0.4999999999999956701 ) ;
#86 = PRODUCT_DEFINITION_SHAPE ( 'NONE', 'NONE',  #12 ) ;
#87 = VERTEX_POINT ( 'NONE', #200 ) ;
#88 = FACE_BOUND ( 'NONE', #81, .T. ) ;
#89 = APPROVAL_DATE_TIME ( #90, #82 ) ;
#90 = DATE_AND_TIME ( #52, #45 ) ;
#91 = CC_DESIGN_PERSON_AND_ORGANIZATION_ASSIGNMENT ( #122, #37, ( #7 ) ) ;
#92 = CARTESIAN_POINT ( 'NONE',  ( 1.043952920314096684E-13, 1.499999999999990452, 29.89999999999999503 ) ) ;
#93 = PERSON_AND_ORGANIZATION ( #73, #123 ) ;
#94 = ORIENTED_EDGE ( 'NONE', *, *, #58, .T. ) ;
#95 = COORDINATED_UNIVERSAL_TIME_OFFSET ( 1, 0, .AHEAD. ) ;
#96 = AXIS2_PLACEMENT_3D ( 'NONE', #165, #27, #75 ) ;
#97 = DIRECTION ( 'NONE',  ( 0.0000000000000000000, -1.000000000000000000, 0.0000000000000000000 ) ) ;
#98 = CYLINDRICAL_SURFACE ( 'NONE', #4, 0.4999999999999958922 ) ;
#99 = ORIENTED_EDGE ( 'NONE', *, *, #203, .F. ) ;
#100 = LOCAL_TIME ( 9, 40, 4.000000000000000000, #95 ) ;
#101 = CYLINDRICAL_SURFACE ( 'NONE', #145, 1.499999999999992673 ) ;
#102 = PLANE ( 'NONE',  #172 ) ;
#103 = ORIENTED_EDGE ( 'NONE', *, *, #34, .T. ) ;
#104 = PERSON_AND_ORGANIZATION_ROLE ( 'design_owner' ) ;
#105 = VERTEX_POINT ( 'NONE', #198 ) ;
#106 = AXIS2_PLACEMENT_3D ( 'NONE', #10, #146, #210 ) ;
#107 = SECURITY_CLASSIFICATION_LEVEL ( 'unclassified' ) ;
#108 =( NAMED_UNIT ( * ) PLANE_ANGLE_UNIT ( ) SI_UNIT ( $, .RADIAN. ) );
#109 = COORDINATED_UNIVERSAL_TIME_OFFSET ( 1, 0, .AHEAD. ) ;
#110 = DIRECTION ( 'NONE',  ( 0.0000000000000000000, 1.000000000000000000, 0.0000000000000000000 ) ) ;
#111 = FACE_OUTER_BOUND ( 'NONE', #195, .T. ) ;
#112 = CARTESIAN_POINT ( 'NONE',  ( 7.911785410657824128E-14, -2.892507354208672151E-15, 22.66025403784432868 ) ) ;
#113 = DIRECTION ( 'NONE',  ( -3.491481338843133355E-15, 1.224646799147353207E-16, -1.000000000000000000 ) ) ;
#114 = EDGE_LOOP ( 'NONE', ( #39 ) ) ;
#115 =( GEOMETRIC_REPRESENTATION_CONTEXT ( 3 ) GLOBAL_UNCERTAINTY_ASSIGNED_CONTEXT ( ( #211 ) ) GLOBAL_UNIT_ASSIGNED_CONTEXT ( ( #207, #108, #124 ) ) REPRESENTATION_CONTEXT ( 'NONE', 'WORKASPACE' ) );
#116 = AXIS2_PLACEMENT_3D ( 'NONE', #148, #61, #179 ) ;
#117 = VERTEX_POINT ( 'NONE', #68 ) ;
#118 = APPROVAL_DATE_TIME ( #175, #137 ) ;
#119 = APPROVAL_ROLE ( '' ) ;
#120 = ADVANCED_FACE ( 'NONE', ( #5 ), #102, .F. ) ;
#121 = CIRCLE ( 'NONE', #106, 0.4999999999999962252 ) ;
#122 = PERSON_AND_ORGANIZATION ( #73, #123 ) ;
#123 = ORGANIZATION ( 'UNSPECIFIED', 'UNSPECIFIED', '' ) ;
#124 =( NAMED_UNIT ( * ) SI_UNIT ( $, .STERADIAN. ) SOLID_ANGLE_UNIT ( ) );
#125 = APPLICATION_PROTOCOL_DEFINITION ( 'international standard', 'config_control_design', 1994, #72 ) ;
#126 = FACE_OUTER_BOUND ( 'NONE', #83, .T. ) ;
#127 = FACE_OUTER_BOUND ( 'NONE', #64, .T. ) ;
#128 = ADVANCED_FACE ( 'NONE', ( #80 ), #193, .F. ) ;
#129 = CARTESIAN_POINT ( 'NONE',  ( 1.396592535537253342E-14, -5.105869244674781062E-16, 4.000000000000000000 ) ) ;
#130 = DIRECTION ( 'NONE',  ( 3.491481338843133355E-15, -1.224646799147353207E-16, 1.000000000000000000 ) ) ;
#131 = EDGE_LOOP ( 'NONE', ( #103 ) ) ;
#132 = AXIS2_PLACEMENT_3D ( 'NONE', #76, #79, #110 ) ;
#133 = PRODUCT ( '372568', '372568', '', ( #170 ) ) ;
#134 = CLOSED_SHELL ( 'NONE', ( #41, #216, #128, #147, #120 ) ) ;
#135 = CALENDAR_DATE ( 2021, 8, 12 ) ;
#136 = DIRECTION ( 'NONE',  ( -3.491481338843133355E-15, 1.224646799147353207E-16, -1.000000000000000000 ) ) ;
#137 = APPROVAL ( #38, 'UNSPECIFIED' ) ;
#138 = CC_DESIGN_PERSON_AND_ORGANIZATION_ASSIGNMENT ( #54, #104, ( #133 ) ) ;
#139 = PERSON_AND_ORGANIZATION ( #73, #123 ) ;
#140 = MANIFOLD_SOLID_BREP ( 'Corps-Déplacer/Copier1[2]', #218 ) ;
#141 = DATE_TIME_ROLE ( 'classification_date' ) ;
#142 = APPROVAL_PERSON_ORGANIZATION ( #16, #137, #221 ) ;
#143 = EDGE_LOOP ( 'NONE', ( #3 ) ) ;
#144 = VERTEX_POINT ( 'NONE', #92 ) ;
#145 = AXIS2_PLACEMENT_3D ( 'NONE', #168, #113, #40 ) ;
#146 = DIRECTION ( 'NONE',  ( 3.491481338843133355E-15, -1.276467311168695266E-16, 1.000000000000000000 ) ) ;
#147 = ADVANCED_FACE ( 'NONE', ( #42, #154 ), #17, .T. ) ;
#148 = CARTESIAN_POINT ( 'NONE',  ( 6.323281993499491219E-31, -4.656625058315077877E-32, 1.811059942710347195E-16 ) ) ;
#149 = CC_DESIGN_PERSON_AND_ORGANIZATION_ASSIGNMENT ( #93, #159, ( #7 ) ) ;
#150 = AXIS2_PLACEMENT_3D ( 'NONE', #212, #194, #78 ) ;
#151 = ORIENTED_EDGE ( 'NONE', *, *, #25, .F. ) ;
#152 = DIRECTION ( 'NONE',  ( 3.491481338843133355E-15, -1.224646799147353207E-16, 1.000000000000000000 ) ) ;
#153 = DIRECTION ( 'NONE',  ( 0.0000000000000000000, -1.000000000000000000, 0.0000000000000000000 ) ) ;
#154 = FACE_OUTER_BOUND ( 'NONE', #177, .T. ) ;
#155 = ORIENTED_EDGE ( 'NONE', *, *, #34, .F. ) ;
#156 = CC_DESIGN_APPROVAL ( #82, ( #7 ) ) ;
#157 = APPLICATION_PROTOCOL_DEFINITION ( 'international standard', 'config_control_design', 1994, #169 ) ;
#158 = CARTESIAN_POINT ( 'NONE',  ( 1.047444401652940007E-13, -3.673940397442059178E-15, 30.00000000000000000 ) ) ;
#159 = PERSON_AND_ORGANIZATION_ROLE ( 'design_supplier' ) ;
#160 = APPROVAL_STATUS ( 'not_yet_approved' ) ;
#161 = DATE_AND_TIME ( #205, #181 ) ;
#162 = CARTESIAN_POINT ( 'NONE',  ( 2.699631110561362892E-14, -1.499999999999993783, 7.732050807568852768 ) ) ;
#163 = AXIS2_PLACEMENT_3D ( 'NONE', #11, #182, #31 ) ;
#164 = ADVANCED_FACE ( 'NONE', ( #178, #30 ), #98, .T. ) ;
#165 = CARTESIAN_POINT ( 'NONE',  ( 1.047444401652940007E-13, 1.049831847863290336E-32, 30.00000000000000000 ) ) ;
#166 = CARTESIAN_POINT ( 'NONE',  ( 1.396592535537253342E-14, 1.124819836996385406E-32, 4.000000000000000000 ) ) ;
#167 = CARTESIAN_POINT ( 'NONE',  ( -6.413839710158237013E-31, 0.0000000000000000000, -1.836996703606440502E-16 ) ) ;
#168 = CARTESIAN_POINT ( 'NONE',  ( 0.0000000000000000000, 0.0000000000000000000, 0.0000000000000000000 ) ) ;
#169 = APPLICATION_CONTEXT ( 'configuration controlled 3d designs of mechanical parts and assemblies' ) ;
#170 = MECHANICAL_CONTEXT ( 'NONE', #169, 'mechanical' ) ;
#171 = CALENDAR_DATE ( 2021, 8, 12 ) ;
#172 = AXIS2_PLACEMENT_3D ( 'NONE', #166, #130, #63 ) ;
#173 = SECURITY_CLASSIFICATION ( '', '', #107 ) ;
#174 = COORDINATED_UNIVERSAL_TIME_OFFSET ( 1, 0, .AHEAD. ) ;
#175 = DATE_AND_TIME ( #135, #186 ) ;
#176 = EDGE_CURVE ( 'NONE', #117, #117, #121, .T. ) ;
#177 = EDGE_LOOP ( 'NONE', ( #13 ) ) ;
#178 = FACE_OUTER_BOUND ( 'NONE', #143, .T. ) ;
#179 = DIRECTION ( 'NONE',  ( -4.456761796588771413E-31, -1.000000000000000000, -1.276467311168695266E-16 ) ) ;
#180 = FACE_OUTER_BOUND ( 'NONE', #131, .T. ) ;
#181 = LOCAL_TIME ( 9, 40, 4.000000000000000000, #174 ) ;
#182 = DIRECTION ( 'NONE',  ( 3.491481338843133355E-15, -1.224646799147353207E-16, 1.000000000000000000 ) ) ;
#183 = APPROVAL ( #160, 'UNSPECIFIED' ) ;
#184 = PERSON_AND_ORGANIZATION_ROLE ( 'classification_officer' ) ;
#185 = CIRCLE ( 'NONE', #35, 1.499999999999992673 ) ;
#186 = LOCAL_TIME ( 9, 40, 4.000000000000000000, #109 ) ;
#187 = PERSON_AND_ORGANIZATION ( #73, #123 ) ;
#188 = DIRECTION ( 'NONE',  ( 0.0000000000000000000, 0.0000000000000000000, 1.000000000000000000 ) ) ;
#189 = DESIGN_CONTEXT ( 'detailed design', #72, 'design' ) ;
#190 = FACE_OUTER_BOUND ( 'NONE', #62, .T. ) ;
#191 = DIRECTION ( 'NONE',  ( 0.0000000000000000000, -1.000000000000000000, 0.0000000000000000000 ) ) ;
#192 = PLANE ( 'NONE',  #163 ) ;
#193 = PLANE ( 'NONE',  #96 ) ;
#194 = DIRECTION ( 'NONE',  ( -3.491481338843133355E-15, 1.224646799147353207E-16, -1.000000000000000000 ) ) ;
#195 = EDGE_LOOP ( 'NONE', ( #151 ) ) ;
#196 = EDGE_CURVE ( 'NONE', #87, #87, #55, .T. ) ;
#197 = LOCAL_TIME ( 9, 40, 4.000000000000000000, #69 ) ;
#198 = CARTESIAN_POINT ( 'NONE',  ( 4.094901095205124781E-31, -0.4999999999999956701, 1.172826287126004986E-16 ) ) ;
#199 = CARTESIAN_POINT ( 'NONE',  ( 0.0000000000000000000, 0.0000000000000000000, 0.0000000000000000000 ) ) ;
#200 = CARTESIAN_POINT ( 'NONE',  ( 1.047444401652940007E-13, 1.399999999999990141, 30.00000000000000000 ) ) ;
#201 = DATE_AND_TIME ( #51, #197 ) ;
#202 = APPROVAL_STATUS ( 'not_yet_approved' ) ;
#203 = EDGE_CURVE ( 'NONE', #56, #56, #185, .T. ) ;
#204 = CC_DESIGN_PERSON_AND_ORGANIZATION_ASSIGNMENT ( #139, #184, ( #173 ) ) ;
#205 = CALENDAR_DATE ( 2021, 8, 12 ) ;
#206 = EDGE_LOOP ( 'NONE', ( #9 ) ) ;
#207 =( LENGTH_UNIT ( ) NAMED_UNIT ( * ) SI_UNIT ( .MILLI., .METRE. ) );
#208 = APPROVAL_ROLE ( '' ) ;
#209 = AXIS2_PLACEMENT_3D ( 'NONE', #129, #60, #97 ) ;
#210 = DIRECTION ( 'NONE',  ( 0.0000000000000000000, -1.000000000000000000, 0.0000000000000000000 ) ) ;
#211 = UNCERTAINTY_MEASURE_WITH_UNIT (LENGTH_MEASURE( 1.000000000000000082E-05 ), #207, 'distance_accuracy_value', 'NONE');
#212 = CARTESIAN_POINT ( 'NONE',  ( 1.043952920314096684E-13, -3.661693929450585821E-15, 29.89999999999999503 ) ) ;
#213 = DIRECTION ( 'NONE',  ( -4.275831445896958607E-31, -1.000000000000000000, -1.224646799147353207E-16 ) ) ;
#214 = CARTESIAN_POINT ( 'NONE',  ( 2.699631110561362892E-14, -9.869710104157150614E-16, 7.732050807568852768 ) ) ;
#215 = DIRECTION ( 'NONE',  ( -4.456761796588769661E-31, -1.000000000000000000, -1.276467311168695266E-16 ) ) ;
#216 = ADVANCED_FACE ( 'NONE', ( #190, #88 ), #65, .T. ) ;
#217 = AXIS2_PLACEMENT_3D ( 'NONE', #112, #8, #153 ) ;
#218 = CLOSED_SHELL ( 'NONE', ( #67, #164, #19 ) ) ;
#219 = APPROVAL_PERSON_ORGANIZATION ( #21, #82, #119 ) ;
#220 = AXIS2_PLACEMENT_3D ( 'NONE', #158, #136, #48 ) ;
#221 = APPROVAL_ROLE ( '' ) ;
#222 = VERTEX_POINT ( 'NONE', #46 ) ;
#223 = COORDINATED_UNIVERSAL_TIME_OFFSET ( 1, 0, .AHEAD. ) ;
ENDSEC;
END-ISO-10303-21;
