ISO-10303-21;
HEADER;
FILE_DESCRIPTION (( 'STEP AP203' ),
    '1' );
FILE_NAME ('37235.step',
    '2021-10-07T13:47:27',
    ( '' ),
    ( '' ),
    'SwSTEP 2.0',
    'SolidWorks 2019',
    '' );
FILE_SCHEMA (( 'CONFIG_CONTROL_DESIGN' ));
ENDSEC;

DATA;
#1 = FACE_BOUND ( 'NONE', #204, .T. ) ;
#2 = CARTESIAN_POINT ( 'NONE',  ( 4.295607510381473940E-14, -1.506696292332196551E-15, 12.30310889132456076 ) ) ;
#3 = CIRCLE ( 'NONE', #6, 0.8249999999999936273 ) ;
#4 = CARTESIAN_POINT ( 'NONE',  ( 4.189777606611760026E-14, 0.8249999999999958478, 12.00000000000000000 ) ) ;
#5 = ADVANCED_FACE ( 'NONE', ( #166, #10 ), #83, .T. ) ;
#6 = AXIS2_PLACEMENT_3D ( 'NONE', #91, #210, #34 ) ;
#7 = PERSON_AND_ORGANIZATION ( #20, #43 ) ;
#8 = ORIENTED_EDGE ( 'NONE', *, *, #220, .T. ) ;
#9 = DIRECTION ( 'NONE',  ( 1.000000000000000000, 0.0000000000000000000, 0.0000000000000000000 ) ) ;
#10 = FACE_OUTER_BOUND ( 'NONE', #65, .T. ) ;
#11 = AXIS2_PLACEMENT_3D ( 'NONE', #2, #107, #105 ) ;
#12 = EDGE_LOOP ( 'NONE', ( #114 ) ) ;
#13 = APPROVAL ( #112, 'UNSPECIFIED' ) ;
#14 = LOCAL_TIME ( 15, 47, 27.00000000000000000, #45 ) ;
#15 = DIRECTION ( 'NONE',  ( -4.275831445896958607E-31, -1.000000000000000000, -1.224646799147353207E-16 ) ) ;
#16 = CARTESIAN_POINT ( 'NONE',  ( 4.295607510381473940E-14, 0.9999999999999954481, 12.30310889132456076 ) ) ;
#17 = CARTESIAN_POINT ( 'NONE',  ( 4.189777606611760026E-14, 0.8249999999999958478, 12.00000000000000000 ) ) ;
#18 = ADVANCED_FACE ( 'NONE', ( #117, #54 ), #213, .T. ) ;
#19 = FACE_BOUND ( 'NONE', #163, .T. ) ;
#20 = PERSON ( 'UNSPECIFIED', 'UNSPECIFIED', 'UNSPECIFIED', ('UNSPECIFIED'), ('UNSPECIFIED'), ('UNSPECIFIED') ) ;
#21 = DATE_AND_TIME ( #96, #120 ) ;
#22 = ADVANCED_FACE ( 'NONE', ( #124 ), #173, .F. ) ;
#23 = APPROVAL_STATUS ( 'not_yet_approved' ) ;
#24 = MANIFOLD_SOLID_BREP ( 'Corps-Déplacer/Copier1[2]', #182 ) ;
#25 = CIRCLE ( 'NONE', #11, 0.9999999999999970024 ) ;
#26 = PERSON_AND_ORGANIZATION ( #20, #43 ) ;
#27 = DATE_AND_TIME ( #159, #14 ) ;
#28 = ORIENTED_EDGE ( 'NONE', *, *, #220, .F. ) ;
#29 = ORIENTED_EDGE ( 'NONE', *, *, #186, .T. ) ;
#30 = CIRCLE ( 'NONE', #152, 0.8000000000000011546 ) ;
#31 = SHAPE_DEFINITION_REPRESENTATION ( #172, #64 ) ;
#32 = APPROVAL_PERSON_ORGANIZATION ( #7, #155, #79 ) ;
#33 = CARTESIAN_POINT ( 'NONE',  ( 4.189777606611760026E-14, -1.469576158976823947E-15, 12.00000000000000000 ) ) ;
#34 = DIRECTION ( 'NONE',  ( 4.668921077302426306E-31, 1.000000000000000000, 1.314184451497591366E-16 ) ) ;
#35 = DIRECTION ( 'NONE',  ( -4.668921077302426306E-31, -1.000000000000000000, -1.314184451497591366E-16 ) ) ;
#36 = CLOSED_SHELL ( 'NONE', ( #95, #61, #5, #207, #22 ) ) ;
#37 = CC_DESIGN_DATE_AND_TIME_ASSIGNMENT ( #78, #111, ( #168 ) ) ;
#38 = PLANE ( 'NONE',  #162 ) ;
#39 = DIRECTION ( 'NONE',  ( -3.491481338843133355E-15, 1.224646799147353207E-16, -1.000000000000000000 ) ) ;
#40 = CALENDAR_DATE ( 2021, 7, 10 ) ;
#41 = CC_DESIGN_PERSON_AND_ORGANIZATION_ASSIGNMENT ( #142, #56, ( #115 ) ) ;
#42 = EDGE_LOOP ( 'NONE', ( #28 ) ) ;
#43 = ORGANIZATION ( 'UNSPECIFIED', 'UNSPECIFIED', '' ) ;
#44 = CC_DESIGN_PERSON_AND_ORGANIZATION_ASSIGNMENT ( #26, #141, ( #115 ) ) ;
#45 = COORDINATED_UNIVERSAL_TIME_OFFSET ( 1, 0, .AHEAD. ) ;
#46 = DIRECTION ( 'NONE',  ( -3.491481338843133355E-15, 1.224646799147353207E-16, -1.000000000000000000 ) ) ;
#47 = CARTESIAN_POINT ( 'NONE',  ( 1.326762908760390423E-13, -4.653657836759941941E-15, 38.00000000000000000 ) ) ;
#48 = AXIS2_PLACEMENT_3D ( 'NONE', #153, #74, #223 ) ;
#49 = DIRECTION ( 'NONE',  ( 3.491481338843133355E-15, -1.224646799147353207E-16, 1.000000000000000000 ) ) ;
#50 = DIRECTION ( 'NONE',  ( -4.275831445896958607E-31, -1.000000000000000000, -1.224646799147353207E-16 ) ) ;
#51 = EDGE_CURVE ( 'NONE', #191, #191, #25, .T. ) ;
#52 = CARTESIAN_POINT ( 'NONE',  ( 0.0000000000000000000, 0.0000000000000000000, 0.0000000000000000000 ) ) ;
#53 = APPROVAL_PERSON_ORGANIZATION ( #127, #13, #184 ) ;
#54 = FACE_OUTER_BOUND ( 'NONE', #200, .T. ) ;
#55 = CARTESIAN_POINT ( 'NONE',  ( 1.730762251828885000E-15, 0.8249999999999935163, 0.4957100106977388454 ) ) ;
#56 = PERSON_AND_ORGANIZATION_ROLE ( 'design_supplier' ) ;
#57 = PRODUCT_RELATED_PRODUCT_CATEGORY ( 'detail', '', ( #69 ) ) ;
#58 = CIRCLE ( 'NONE', #48, 0.8249999999999974021 ) ;
#59 = APPROVAL_STATUS ( 'not_yet_approved' ) ;
#60 = APPLICATION_CONTEXT ( 'configuration controlled 3d designs of mechanical parts and assemblies' ) ;
#61 = ADVANCED_FACE ( 'NONE', ( #1, #151 ), #72, .T. ) ;
#62 = DIRECTION ( 'NONE',  ( 4.275831445896957731E-31, 1.000000000000000000, 1.224646799147353454E-16 ) ) ;
#63 = AXIS2_PLACEMENT_3D ( 'NONE', #143, #46, #62 ) ;
#64 = ADVANCED_BREP_SHAPE_REPRESENTATION ( '37235', ( #102, #24, #187 ), #148 ) ;
#65 = EDGE_LOOP ( 'NONE', ( #29 ) ) ;
#66 = ORIENTED_EDGE ( 'NONE', *, *, #80, .F. ) ;
#67 = UNCERTAINTY_MEASURE_WITH_UNIT (LENGTH_MEASURE( 1.000000000000000082E-05 ), #100, 'distance_accuracy_value', 'NONE');
#68 = CONICAL_SURFACE ( 'NONE', #167, 0.8249999999999936273, 1.029744258676649871 ) ;
#69 = PRODUCT ( '37235', '37235', '', ( #199 ) ) ;
#70 = ORIENTED_EDGE ( 'NONE', *, *, #80, .T. ) ;
#71 = FACE_OUTER_BOUND ( 'NONE', #183, .T. ) ;
#72 = CONICAL_SURFACE ( 'NONE', #129, 0.9999999999999970024, 0.5235987755982873804 ) ;
#73 = CARTESIAN_POINT ( 'NONE',  ( 4.295607510381473940E-14, -1.506696292332196551E-15, 12.30310889132456076 ) ) ;
#74 = DIRECTION ( 'NONE',  ( -3.491481338843133355E-15, 1.224646799147353207E-16, -1.000000000000000000 ) ) ;
#75 = DIRECTION ( 'NONE',  ( -3.491481338843133355E-15, 1.224646799147353207E-16, -1.000000000000000000 ) ) ;
#76 = CIRCLE ( 'NONE', #185, 1.000000000000000888 ) ;
#77 = APPROVAL_DATE_TIME ( #27, #155 ) ;
#78 = DATE_AND_TIME ( #40, #202 ) ;
#79 = APPROVAL_ROLE ( '' ) ;
#80 = EDGE_CURVE ( 'NONE', #89, #89, #30, .T. ) ;
#81 = EDGE_LOOP ( 'NONE', ( #219 ) ) ;
#82 = PERSON_AND_ORGANIZATION_ROLE ( 'creator' ) ;
#83 = CYLINDRICAL_SURFACE ( 'NONE', #63, 0.9999999999999988898 ) ;
#84 = ORIENTED_EDGE ( 'NONE', *, *, #169, .T. ) ;
#85 = EDGE_LOOP ( 'NONE', ( #66 ) ) ;
#86 = LOCAL_TIME ( 15, 47, 27.00000000000000000, #160 ) ;
#87 = DIRECTION ( 'NONE',  ( -3.491481338843133355E-15, 1.224646799147353207E-16, -1.000000000000000000 ) ) ;
#88 = DIRECTION ( 'NONE',  ( -3.491481338843133355E-15, 1.224646799147353207E-16, -1.000000000000000000 ) ) ;
#89 = VERTEX_POINT ( 'NONE', #122 ) ;
#90 = FACE_OUTER_BOUND ( 'NONE', #12, .T. ) ;
#91 = CARTESIAN_POINT ( 'NONE',  ( 1.730762251828884605E-15, -6.070696779062859283E-17, 0.4957100106977387344 ) ) ;
#92 = CC_DESIGN_APPROVAL ( #222, ( #168 ) ) ;
#93 = APPLICATION_PROTOCOL_DEFINITION ( 'international standard', 'config_control_design', 1994, #126 ) ;
#94 = APPROVAL_ROLE ( '' ) ;
#95 = ADVANCED_FACE ( 'NONE', ( #188 ), #38, .F. ) ;
#96 = CALENDAR_DATE ( 2021, 7, 10 ) ;
#97 = EDGE_LOOP ( 'NONE', ( #84 ) ) ;
#98 = COORDINATED_UNIVERSAL_TIME_OFFSET ( 1, 0, .AHEAD. ) ;
#99 = ORIENTED_EDGE ( 'NONE', *, *, #136, .T. ) ;
#100 =( LENGTH_UNIT ( ) NAMED_UNIT ( * ) SI_UNIT ( .MILLI., .METRE. ) );
#101 = ADVANCED_FACE ( 'NONE', ( #71 ), #68, .T. ) ;
#102 = MANIFOLD_SOLID_BREP ( 'Corps-Déplacer/Copier1[1]', #36 ) ;
#103 = ADVANCED_FACE ( 'NONE', ( #90 ), #171, .T. ) ;
#104 = CONICAL_SURFACE ( 'NONE', #206, 0.8000000000000011546, 0.7853981633974507215 ) ;
#105 = DIRECTION ( 'NONE',  ( 0.0000000000000000000, 1.000000000000000000, 0.0000000000000000000 ) ) ;
#106 = DIRECTION ( 'NONE',  ( -3.491481338843133355E-15, 1.224646799147353207E-16, -1.000000000000000000 ) ) ;
#107 = DIRECTION ( 'NONE',  ( -3.491481338843133355E-15, 1.224646799147353207E-16, -1.000000000000000000 ) ) ;
#108 = AXIS2_PLACEMENT_3D ( 'NONE', #52, #106, #110 ) ;
#109 = DIRECTION ( 'NONE',  ( 3.491481338843133355E-15, -1.224646799147353207E-16, 1.000000000000000000 ) ) ;
#110 = DIRECTION ( 'NONE',  ( 4.275831445896958607E-31, 1.000000000000000000, 1.224646799147353207E-16 ) ) ;
#111 = DATE_TIME_ROLE ( 'classification_date' ) ;
#112 = APPROVAL_STATUS ( 'not_yet_approved' ) ;
#113 = PERSON_AND_ORGANIZATION_ROLE ( 'design_owner' ) ;
#114 = ORIENTED_EDGE ( 'NONE', *, *, #136, .F. ) ;
#115 = PRODUCT_DEFINITION_FORMATION_WITH_SPECIFIED_SOURCE ( 'ANY', '', #69, .NOT_KNOWN. ) ;
#116 =( NAMED_UNIT ( * ) PLANE_ANGLE_UNIT ( ) SI_UNIT ( $, .RADIAN. ) );
#117 = FACE_OUTER_BOUND ( 'NONE', #42, .T. ) ;
#118 = CALENDAR_DATE ( 2021, 7, 10 ) ;
#119 = CC_DESIGN_PERSON_AND_ORGANIZATION_ASSIGNMENT ( #180, #82, ( #190 ) ) ;
#120 = LOCAL_TIME ( 15, 47, 27.00000000000000000, #195 ) ;
#121 = CARTESIAN_POINT ( 'NONE',  ( 1.319779946082704535E-13, -4.629164900776995227E-15, 37.79999999999999716 ) ) ;
#122 = CARTESIAN_POINT ( 'NONE',  ( 1.326762908760390423E-13, 0.7999999999999964917, 38.00000000000000000 ) ) ;
#123 = AXIS2_PLACEMENT_3D ( 'NONE', #154, #39, #125 ) ;
#124 = FACE_OUTER_BOUND ( 'NONE', #85, .T. ) ;
#125 = DIRECTION ( 'NONE',  ( 4.275831445896958607E-31, 1.000000000000000000, 1.224646799147353207E-16 ) ) ;
#126 = APPLICATION_CONTEXT ( 'configuration controlled 3d designs of mechanical parts and assemblies' ) ;
#127 = PERSON_AND_ORGANIZATION ( #20, #43 ) ;
#128 = SECURITY_CLASSIFICATION_LEVEL ( 'unclassified' ) ;
#129 = AXIS2_PLACEMENT_3D ( 'NONE', #73, #193, #211 ) ;
#130 = PERSON_AND_ORGANIZATION ( #20, #43 ) ;
#131 = ORIENTED_EDGE ( 'NONE', *, *, #186, .F. ) ;
#132 = VERTEX_POINT ( 'NONE', #208 ) ;
#133 = DIRECTION ( 'NONE',  ( 0.0000000000000000000, 1.000000000000000000, 0.0000000000000000000 ) ) ;
#134 = DIRECTION ( 'NONE',  ( 0.0000000000000000000, 1.000000000000000000, 0.0000000000000000000 ) ) ;
#135 = VERTEX_POINT ( 'NONE', #17 ) ;
#136 = EDGE_CURVE ( 'NONE', #135, #135, #216, .T. ) ;
#137 = CC_DESIGN_APPROVAL ( #155, ( #115 ) ) ;
#138 = CARTESIAN_POINT ( 'NONE',  ( 4.189777606611760026E-14, 6.186509103480120210E-33, 12.00000000000000000 ) ) ;
#139 = CARTESIAN_POINT ( 'NONE',  ( 0.0000000000000000000, 0.0000000000000000000, 0.0000000000000000000 ) ) ;
#140 = COORDINATED_UNIVERSAL_TIME_OFFSET ( 1, 0, .AHEAD. ) ;
#141 = PERSON_AND_ORGANIZATION_ROLE ( 'creator' ) ;
#142 = PERSON_AND_ORGANIZATION ( #20, #43 ) ;
#143 = CARTESIAN_POINT ( 'NONE',  ( 0.0000000000000000000, 0.0000000000000000000, 0.0000000000000000000 ) ) ;
#144 = APPROVAL_DATE_TIME ( #203, #222 ) ;
#145 = ORIENTED_EDGE ( 'NONE', *, *, #169, .F. ) ;
#146 = AXIS2_PLACEMENT_3D ( 'NONE', #176, #109, #15 ) ;
#147 = EDGE_LOOP ( 'NONE', ( #205 ) ) ;
#148 =( GEOMETRIC_REPRESENTATION_CONTEXT ( 3 ) GLOBAL_UNCERTAINTY_ASSIGNED_CONTEXT ( ( #67 ) ) GLOBAL_UNIT_ASSIGNED_CONTEXT ( ( #100, #116, #198 ) ) REPRESENTATION_CONTEXT ( 'NONE', 'WORKASPACE' ) );
#149 = EDGE_LOOP ( 'NONE', ( #131 ) ) ;
#150 = CC_DESIGN_DATE_AND_TIME_ASSIGNMENT ( #21, #181, ( #190 ) ) ;
#151 = FACE_OUTER_BOUND ( 'NONE', #147, .T. ) ;
#152 = AXIS2_PLACEMENT_3D ( 'NONE', #47, #88, #194 ) ;
#153 = CARTESIAN_POINT ( 'NONE',  ( 4.189777606611760026E-14, -1.469576158976823947E-15, 12.00000000000000000 ) ) ;
#154 = CARTESIAN_POINT ( 'NONE',  ( 1.326762908760390423E-13, 5.999039130647368851E-33, 38.00000000000000000 ) ) ;
#155 = APPROVAL ( #59, 'UNSPECIFIED' ) ;
#156 = CARTESIAN_POINT ( 'NONE',  ( 1.730762251828884605E-15, -6.070696779062859283E-17, 0.4957100106977387344 ) ) ;
#157 = LOCAL_TIME ( 15, 47, 27.00000000000000000, #140 ) ;
#158 = VERTEX_POINT ( 'NONE', #4 ) ;
#159 = CALENDAR_DATE ( 2021, 7, 10 ) ;
#160 = COORDINATED_UNIVERSAL_TIME_OFFSET ( 1, 0, .AHEAD. ) ;
#161 = DIRECTION ( 'NONE',  ( 0.0000000000000000000, 0.0000000000000000000, 1.000000000000000000 ) ) ;
#162 = AXIS2_PLACEMENT_3D ( 'NONE', #138, #221, #50 ) ;
#163 = EDGE_LOOP ( 'NONE', ( #70 ) ) ;
#164 = APPROVAL_DATE_TIME ( #201, #13 ) ;
#165 = CC_DESIGN_PERSON_AND_ORGANIZATION_ASSIGNMENT ( #217, #113, ( #69 ) ) ;
#166 = FACE_OUTER_BOUND ( 'NONE', #81, .T. ) ;
#167 = AXIS2_PLACEMENT_3D ( 'NONE', #156, #49, #35 ) ;
#168 = SECURITY_CLASSIFICATION ( '', '', #128 ) ;
#169 = EDGE_CURVE ( 'NONE', #158, #158, #58, .T. ) ;
#170 = DESIGN_CONTEXT ( 'detailed design', #60, 'design' ) ;
#171 = PLANE ( 'NONE',  #146 ) ;
#172 = PRODUCT_DEFINITION_SHAPE ( 'NONE', 'NONE',  #190 ) ;
#173 = PLANE ( 'NONE',  #123 ) ;
#174 = CARTESIAN_POINT ( 'NONE',  ( 1.326762908760390423E-13, -4.653657836759941941E-15, 38.00000000000000000 ) ) ;
#175 = FACE_OUTER_BOUND ( 'NONE', #149, .T. ) ;
#176 = CARTESIAN_POINT ( 'NONE',  ( 4.189777606611760026E-14, 6.186509103480120210E-33, 12.00000000000000000 ) ) ;
#177 = CALENDAR_DATE ( 2021, 7, 10 ) ;
#178 = CC_DESIGN_PERSON_AND_ORGANIZATION_ASSIGNMENT ( #130, #197, ( #168 ) ) ;
#179 = PERSON_AND_ORGANIZATION ( #20, #43 ) ;
#180 = PERSON_AND_ORGANIZATION ( #20, #43 ) ;
#181 = DATE_TIME_ROLE ( 'creation_date' ) ;
#182 = CLOSED_SHELL ( 'NONE', ( #101, #18, #103 ) ) ;
#183 = EDGE_LOOP ( 'NONE', ( #8 ) ) ;
#184 = APPROVAL_ROLE ( '' ) ;
#185 = AXIS2_PLACEMENT_3D ( 'NONE', #121, #75, #189 ) ;
#186 = EDGE_CURVE ( 'NONE', #132, #132, #76, .T. ) ;
#187 = AXIS2_PLACEMENT_3D ( 'NONE', #139, #161, #9 ) ;
#188 = FACE_OUTER_BOUND ( 'NONE', #97, .T. ) ;
#189 = DIRECTION ( 'NONE',  ( 0.0000000000000000000, 1.000000000000000000, 0.0000000000000000000 ) ) ;
#190 = PRODUCT_DEFINITION ( 'UNKNOWN', '', #115, #170 ) ;
#191 = VERTEX_POINT ( 'NONE', #16 ) ;
#192 = AXIS2_PLACEMENT_3D ( 'NONE', #33, #87, #133 ) ;
#193 = DIRECTION ( 'NONE',  ( 3.491481338843133355E-15, -1.224646799147353207E-16, 1.000000000000000000 ) ) ;
#194 = DIRECTION ( 'NONE',  ( 0.0000000000000000000, 1.000000000000000000, 0.0000000000000000000 ) ) ;
#195 = COORDINATED_UNIVERSAL_TIME_OFFSET ( 1, 0, .AHEAD. ) ;
#196 = APPROVAL_PERSON_ORGANIZATION ( #179, #222, #94 ) ;
#197 = PERSON_AND_ORGANIZATION_ROLE ( 'classification_officer' ) ;
#198 =( NAMED_UNIT ( * ) SI_UNIT ( $, .STERADIAN. ) SOLID_ANGLE_UNIT ( ) );
#199 = MECHANICAL_CONTEXT ( 'NONE', #126, 'mechanical' ) ;
#200 = EDGE_LOOP ( 'NONE', ( #99 ) ) ;
#201 = DATE_AND_TIME ( #177, #86 ) ;
#202 = LOCAL_TIME ( 15, 47, 27.00000000000000000, #98 ) ;
#203 = DATE_AND_TIME ( #118, #157 ) ;
#204 = EDGE_LOOP ( 'NONE', ( #145 ) ) ;
#205 = ORIENTED_EDGE ( 'NONE', *, *, #51, .T. ) ;
#206 = AXIS2_PLACEMENT_3D ( 'NONE', #174, #209, #134 ) ;
#207 = ADVANCED_FACE ( 'NONE', ( #175, #19 ), #104, .T. ) ;
#208 = CARTESIAN_POINT ( 'NONE',  ( 1.319779946082704535E-13, 0.9999999999999963363, 37.79999999999999716 ) ) ;
#209 = DIRECTION ( 'NONE',  ( -3.491481338843133355E-15, 1.224646799147353207E-16, -1.000000000000000000 ) ) ;
#210 = DIRECTION ( 'NONE',  ( -3.491481338843133355E-15, 1.224646799147353207E-16, -1.000000000000000000 ) ) ;
#211 = DIRECTION ( 'NONE',  ( 0.0000000000000000000, -1.000000000000000000, 0.0000000000000000000 ) ) ;
#212 = CC_DESIGN_APPROVAL ( #13, ( #190 ) ) ;
#213 = CYLINDRICAL_SURFACE ( 'NONE', #108, 0.8249999999999954037 ) ;
#214 = VERTEX_POINT ( 'NONE', #55 ) ;
#215 = APPLICATION_PROTOCOL_DEFINITION ( 'international standard', 'config_control_design', 1994, #60 ) ;
#216 = CIRCLE ( 'NONE', #192, 0.8249999999999974021 ) ;
#217 = PERSON_AND_ORGANIZATION ( #20, #43 ) ;
#218 = CC_DESIGN_SECURITY_CLASSIFICATION ( #168, ( #115 ) ) ;
#219 = ORIENTED_EDGE ( 'NONE', *, *, #51, .F. ) ;
#220 = EDGE_CURVE ( 'NONE', #214, #214, #3, .T. ) ;
#221 = DIRECTION ( 'NONE',  ( 3.491481338843133355E-15, -1.224646799147353207E-16, 1.000000000000000000 ) ) ;
#222 = APPROVAL ( #23, 'UNSPECIFIED' ) ;
#223 = DIRECTION ( 'NONE',  ( 0.0000000000000000000, 1.000000000000000000, 0.0000000000000000000 ) ) ;
ENDSEC;
END-ISO-10303-21;
