ISO-10303-21;
HEADER;
FILE_DESCRIPTION (( 'STEP AP203' ),
    '1' );
FILE_NAME ('37234.step',
    '2021-10-07T13:47:27',
    ( '' ),
    ( '' ),
    'SwSTEP 2.0',
    'SolidWorks 2019',
    '' );
FILE_SCHEMA (( 'CONFIG_CONTROL_DESIGN' ));
ENDSEC;

DATA;
#1 = ORIENTED_EDGE ( 'NONE', *, *, #60, .F. ) ;
#2 = CARTESIAN_POINT ( 'NONE',  ( 4.310726068062861462E-14, -1.511999168525821378E-15, 12.34641016151378601 ) ) ;
#3 = DIRECTION ( 'NONE',  ( 4.275831445896958607E-31, 1.000000000000000000, 1.224646799147353207E-16 ) ) ;
#4 = CIRCLE ( 'NONE', #65, 0.7999999999999940492 ) ;
#5 = DIRECTION ( 'NONE',  ( -3.491481338843133355E-15, 1.224646799147353207E-16, -1.000000000000000000 ) ) ;
#6 = CARTESIAN_POINT ( 'NONE',  ( 4.189777606611760026E-14, 0.7999999999999926059, 12.00000000000000000 ) ) ;
#7 = DIRECTION ( 'NONE',  ( 0.0000000000000000000, 1.000000000000000000, 0.0000000000000000000 ) ) ;
#8 = APPROVAL ( #13, 'UNSPECIFIED' ) ;
#9 = COORDINATED_UNIVERSAL_TIME_OFFSET ( 1, 0, .AHEAD. ) ;
#10 = AXIS2_PLACEMENT_3D ( 'NONE', #152, #137, #202 ) ;
#11 = CC_DESIGN_APPROVAL ( #26, ( #81 ) ) ;
#12 = CALENDAR_DATE ( 2021, 7, 10 ) ;
#13 = APPROVAL_STATUS ( 'not_yet_approved' ) ;
#14 = EDGE_LOOP ( 'NONE', ( #190 ) ) ;
#15 = DIRECTION ( 'NONE',  ( 0.0000000000000000000, 1.000000000000000000, 0.0000000000000000000 ) ) ;
#16 = EDGE_LOOP ( 'NONE', ( #106 ) ) ;
#17 = CONICAL_SURFACE ( 'NONE', #84, 0.7999999999999937161, 1.029744258676649871 ) ;
#18 = VERTEX_POINT ( 'NONE', #52 ) ;
#19 = DIRECTION ( 'NONE',  ( -4.275831445896958607E-31, -1.000000000000000000, -1.224646799147353207E-16 ) ) ;
#20 = DATE_AND_TIME ( #176, #187 ) ;
#21 = EDGE_CURVE ( 'NONE', #18, #18, #112, .T. ) ;
#22 = PLANE ( 'NONE',  #103 ) ;
#23 = APPROVAL_PERSON_ORGANIZATION ( #66, #26, #80 ) ;
#24 = DIRECTION ( 'NONE',  ( -3.491481338843133355E-15, 1.224646799147353207E-16, -1.000000000000000000 ) ) ;
#25 = CARTESIAN_POINT ( 'NONE',  ( 1.678314910864373190E-15, -5.886736270606409076E-17, 0.4806884952220496499 ) ) ;
#26 = APPROVAL ( #164, 'UNSPECIFIED' ) ;
#27 = VERTEX_POINT ( 'NONE', #162 ) ;
#28 = COORDINATED_UNIVERSAL_TIME_OFFSET ( 1, 0, .AHEAD. ) ;
#29 = DATE_AND_TIME ( #82, #123 ) ;
#30 = DIRECTION ( 'NONE',  ( 0.0000000000000000000, 0.0000000000000000000, 1.000000000000000000 ) ) ;
#31 = EDGE_CURVE ( 'NONE', #111, #111, #139, .T. ) ;
#32 = EDGE_LOOP ( 'NONE', ( #153 ) ) ;
#33 = ORIENTED_EDGE ( 'NONE', *, *, #220, .F. ) ;
#34 = ORIENTED_EDGE ( 'NONE', *, *, #21, .F. ) ;
#35 = LOCAL_TIME ( 15, 47, 27.00000000000000000, #215 ) ;
#36 = PLANE ( 'NONE',  #192 ) ;
#37 = DIRECTION ( 'NONE',  ( -3.491481338843133355E-15, 1.224646799147353207E-16, -1.000000000000000000 ) ) ;
#38 = FACE_OUTER_BOUND ( 'NONE', #207, .T. ) ;
#39 = CARTESIAN_POINT ( 'NONE',  ( 0.0000000000000000000, 0.0000000000000000000, 0.0000000000000000000 ) ) ;
#40 = AXIS2_PLACEMENT_3D ( 'NONE', #121, #105, #15 ) ;
#41 = FACE_OUTER_BOUND ( 'NONE', #102, .T. ) ;
#42 = CC_DESIGN_DATE_AND_TIME_ASSIGNMENT ( #148, #62, ( #81 ) ) ;
#43 = APPROVAL_DATE_TIME ( #185, #26 ) ;
#44 =( LENGTH_UNIT ( ) NAMED_UNIT ( * ) SI_UNIT ( .MILLI., .METRE. ) );
#45 = LOCAL_TIME ( 15, 47, 27.00000000000000000, #9 ) ;
#46 = PERSON_AND_ORGANIZATION_ROLE ( 'design_supplier' ) ;
#47 = ORIENTED_EDGE ( 'NONE', *, *, #120, .F. ) ;
#48 = EDGE_LOOP ( 'NONE', ( #47 ) ) ;
#49 = FACE_BOUND ( 'NONE', #14, .T. ) ;
#50 = CC_DESIGN_PERSON_AND_ORGANIZATION_ASSIGNMENT ( #184, #149, ( #98 ) ) ;
#51 = FACE_OUTER_BOUND ( 'NONE', #32, .T. ) ;
#52 = CARTESIAN_POINT ( 'NONE',  ( 4.310726068062861462E-14, 0.9999999999999963363, 12.34641016151378601 ) ) ;
#53 = CC_DESIGN_PERSON_AND_ORGANIZATION_ASSIGNMENT ( #199, #46, ( #94 ) ) ;
#54 = DIRECTION ( 'NONE',  ( -3.491481338843133355E-15, 1.224646799147353207E-16, -1.000000000000000000 ) ) ;
#55 = ORGANIZATION ( 'UNSPECIFIED', 'UNSPECIFIED', '' ) ;
#56 = CARTESIAN_POINT ( 'NONE',  ( 4.189777606611760026E-14, 5.999039130647362693E-33, 12.00000000000000000 ) ) ;
#57 = CALENDAR_DATE ( 2021, 7, 10 ) ;
#58 = PERSON_AND_ORGANIZATION ( #222, #55 ) ;
#59 = AXIS2_PLACEMENT_3D ( 'NONE', #110, #211, #144 ) ;
#60 = EDGE_CURVE ( 'NONE', #113, #113, #134, .T. ) ;
#61 = DATE_AND_TIME ( #12, #35 ) ;
#62 = DATE_TIME_ROLE ( 'creation_date' ) ;
#63 = ADVANCED_FACE ( 'NONE', ( #143, #49 ), #196, .T. ) ;
#64 = APPROVAL ( #198, 'UNSPECIFIED' ) ;
#65 = AXIS2_PLACEMENT_3D ( 'NONE', #195, #180, #209 ) ;
#66 = PERSON_AND_ORGANIZATION ( #222, #55 ) ;
#67 = ORIENTED_EDGE ( 'NONE', *, *, #179, .F. ) ;
#68 = EDGE_LOOP ( 'NONE', ( #34 ) ) ;
#69 = APPROVAL_DATE_TIME ( #20, #8 ) ;
#70 = CC_DESIGN_PERSON_AND_ORGANIZATION_ASSIGNMENT ( #116, #163, ( #94 ) ) ;
#71 = DIRECTION ( 'NONE',  ( -3.491481338843133355E-15, 1.224646799147353207E-16, -1.000000000000000000 ) ) ;
#72 = AXIS2_PLACEMENT_3D ( 'NONE', #89, #5, #175 ) ;
#73 = DIRECTION ( 'NONE',  ( 0.0000000000000000000, 1.000000000000000000, 0.0000000000000000000 ) ) ;
#74 = ADVANCED_BREP_SHAPE_REPRESENTATION ( '37234', ( #167, #101, #146 ), #90 ) ;
#75 = FACE_BOUND ( 'NONE', #48, .T. ) ;
#76 = VERTEX_POINT ( 'NONE', #212 ) ;
#77 = PLANE ( 'NONE',  #97 ) ;
#78 = CLOSED_SHELL ( 'NONE', ( #145, #159, #216, #63, #107 ) ) ;
#79 = DIRECTION ( 'NONE',  ( 1.000000000000000000, 0.0000000000000000000, 0.0000000000000000000 ) ) ;
#80 = APPROVAL_ROLE ( '' ) ;
#81 = PRODUCT_DEFINITION ( 'UNKNOWN', '', #94, #138 ) ;
#82 = CALENDAR_DATE ( 2021, 7, 10 ) ;
#83 = DATE_TIME_ROLE ( 'classification_date' ) ;
#84 = AXIS2_PLACEMENT_3D ( 'NONE', #88, #197, #156 ) ;
#85 = EDGE_LOOP ( 'NONE', ( #100 ) ) ;
#86 = APPLICATION_CONTEXT ( 'configuration controlled 3d designs of mechanical parts and assemblies' ) ;
#87 = EDGE_LOOP ( 'NONE', ( #67 ) ) ;
#88 = CARTESIAN_POINT ( 'NONE',  ( 1.678314910864373190E-15, -5.886736270606409076E-17, 0.4806884952220496499 ) ) ;
#89 = CARTESIAN_POINT ( 'NONE',  ( 0.0000000000000000000, 0.0000000000000000000, 0.0000000000000000000 ) ) ;
#90 =( GEOMETRIC_REPRESENTATION_CONTEXT ( 3 ) GLOBAL_UNCERTAINTY_ASSIGNED_CONTEXT ( ( #151 ) ) GLOBAL_UNIT_ASSIGNED_CONTEXT ( ( #44, #214, #200 ) ) REPRESENTATION_CONTEXT ( 'NONE', 'WORKASPACE' ) );
#91 = DIRECTION ( 'NONE',  ( -4.275831445896958607E-31, -1.000000000000000000, -1.224646799147353207E-16 ) ) ;
#92 = CARTESIAN_POINT ( 'NONE',  ( 4.189777606611760026E-14, -1.469576158976823947E-15, 12.00000000000000000 ) ) ;
#93 = CARTESIAN_POINT ( 'NONE',  ( 1.326762908760390423E-13, 5.999039130647368851E-33, 38.00000000000000000 ) ) ;
#94 = PRODUCT_DEFINITION_FORMATION_WITH_SPECIFIED_SOURCE ( 'ANY', '', #130, .NOT_KNOWN. ) ;
#95 = PRODUCT_DEFINITION_SHAPE ( 'NONE', 'NONE',  #81 ) ;
#96 = APPLICATION_PROTOCOL_DEFINITION ( 'international standard', 'config_control_design', 1994, #189 ) ;
#97 = AXIS2_PLACEMENT_3D ( 'NONE', #56, #160, #19 ) ;
#98 = SECURITY_CLASSIFICATION ( '', '', #117 ) ;
#99 = APPROVAL_ROLE ( '' ) ;
#100 = ORIENTED_EDGE ( 'NONE', *, *, #31, .F. ) ;
#101 = MANIFOLD_SOLID_BREP ( 'Corps-Déplacer/Copier1[2]', #204 ) ;
#102 = EDGE_LOOP ( 'NONE', ( #1 ) ) ;
#103 = AXIS2_PLACEMENT_3D ( 'NONE', #93, #71, #3 ) ;
#104 = ADVANCED_FACE ( 'NONE', ( #124 ), #17, .T. ) ;
#105 = DIRECTION ( 'NONE',  ( -3.491481338843133355E-15, 1.224646799147353207E-16, -1.000000000000000000 ) ) ;
#106 = ORIENTED_EDGE ( 'NONE', *, *, #21, .T. ) ;
#107 = ADVANCED_FACE ( 'NONE', ( #213 ), #22, .F. ) ;
#108 = ADVANCED_FACE ( 'NONE', ( #41, #38 ), #194, .T. ) ;
#109 = CARTESIAN_POINT ( 'NONE',  ( 4.189777606611760026E-14, 5.999039130647362693E-33, 12.00000000000000000 ) ) ;
#110 = CARTESIAN_POINT ( 'NONE',  ( 1.319779946082704535E-13, -4.629164900776995227E-15, 37.79999999999999716 ) ) ;
#111 = VERTEX_POINT ( 'NONE', #177 ) ;
#112 = CIRCLE ( 'NONE', #10, 0.9999999999999978906 ) ;
#113 = VERTEX_POINT ( 'NONE', #178 ) ;
#114 = FACE_OUTER_BOUND ( 'NONE', #206, .T. ) ;
#115 = PERSON_AND_ORGANIZATION_ROLE ( 'design_owner' ) ;
#116 = PERSON_AND_ORGANIZATION ( #222, #55 ) ;
#117 = SECURITY_CLASSIFICATION_LEVEL ( 'unclassified' ) ;
#118 = PERSON_AND_ORGANIZATION ( #222, #55 ) ;
#119 = EDGE_LOOP ( 'NONE', ( #33 ) ) ;
#120 = EDGE_CURVE ( 'NONE', #158, #158, #150, .T. ) ;
#121 = CARTESIAN_POINT ( 'NONE',  ( 1.326762908760390423E-13, -4.653657836759941941E-15, 38.00000000000000000 ) ) ;
#122 = CC_DESIGN_PERSON_AND_ORGANIZATION_ASSIGNMENT ( #201, #115, ( #130 ) ) ;
#123 = LOCAL_TIME ( 15, 47, 27.00000000000000000, #28 ) ;
#124 = FACE_OUTER_BOUND ( 'NONE', #191, .T. ) ;
#125 = CYLINDRICAL_SURFACE ( 'NONE', #223, 0.9999999999999993339 ) ;
#126 = DIRECTION ( 'NONE',  ( -3.491481338843133355E-15, 1.224646799147353207E-16, -1.000000000000000000 ) ) ;
#127 = DIRECTION ( 'NONE',  ( 4.814824860968127293E-31, 1.000000000000000000, 1.355252715606891143E-16 ) ) ;
#128 = DIRECTION ( 'NONE',  ( 3.491481338843133355E-15, -1.224646799147353207E-16, 1.000000000000000000 ) ) ;
#129 = CALENDAR_DATE ( 2021, 7, 10 ) ;
#130 = PRODUCT ( '37234', '37234', '', ( #186 ) ) ;
#131 = PERSON_AND_ORGANIZATION_ROLE ( 'creator' ) ;
#132 = COORDINATED_UNIVERSAL_TIME_OFFSET ( 1, 0, .AHEAD. ) ;
#133 = APPROVAL_DATE_TIME ( #29, #64 ) ;
#134 = CIRCLE ( 'NONE', #165, 0.7999999999999937161 ) ;
#135 = CONICAL_SURFACE ( 'NONE', #161, 0.9999999999999978906, 0.5235987755982950409 ) ;
#136 = CC_DESIGN_APPROVAL ( #8, ( #98 ) ) ;
#137 = DIRECTION ( 'NONE',  ( -3.491481338843133355E-15, 1.224646799147353207E-16, -1.000000000000000000 ) ) ;
#138 = DESIGN_CONTEXT ( 'detailed design', #86, 'design' ) ;
#139 = CIRCLE ( 'NONE', #40, 0.8000000000000011546 ) ;
#140 = CC_DESIGN_PERSON_AND_ORGANIZATION_ASSIGNMENT ( #217, #131, ( #81 ) ) ;
#141 = DIRECTION ( 'NONE',  ( 0.0000000000000000000, -1.000000000000000000, 0.0000000000000000000 ) ) ;
#142 = FACE_OUTER_BOUND ( 'NONE', #68, .T. ) ;
#143 = FACE_OUTER_BOUND ( 'NONE', #119, .T. ) ;
#144 = DIRECTION ( 'NONE',  ( 0.0000000000000000000, 1.000000000000000000, 0.0000000000000000000 ) ) ;
#145 = ADVANCED_FACE ( 'NONE', ( #114 ), #77, .F. ) ;
#146 = AXIS2_PLACEMENT_3D ( 'NONE', #221, #30, #79 ) ;
#147 = FACE_OUTER_BOUND ( 'NONE', #87, .T. ) ;
#148 = DATE_AND_TIME ( #129, #45 ) ;
#149 = PERSON_AND_ORGANIZATION_ROLE ( 'classification_officer' ) ;
#150 = CIRCLE ( 'NONE', #182, 0.7999999999999940492 ) ;
#151 = UNCERTAINTY_MEASURE_WITH_UNIT (LENGTH_MEASURE( 1.000000000000000082E-05 ), #44, 'distance_accuracy_value', 'NONE');
#152 = CARTESIAN_POINT ( 'NONE',  ( 4.310726068062861462E-14, -1.511999168525821378E-15, 12.34641016151378601 ) ) ;
#153 = ORIENTED_EDGE ( 'NONE', *, *, #220, .T. ) ;
#154 = CC_DESIGN_APPROVAL ( #64, ( #94 ) ) ;
#155 = FACE_OUTER_BOUND ( 'NONE', #16, .T. ) ;
#156 = DIRECTION ( 'NONE',  ( -4.814824860968127293E-31, -1.000000000000000000, -1.355252715606891143E-16 ) ) ;
#157 = CARTESIAN_POINT ( 'NONE',  ( 1.326762908760390423E-13, -4.653657836759941941E-15, 38.00000000000000000 ) ) ;
#158 = VERTEX_POINT ( 'NONE', #6 ) ;
#159 = ADVANCED_FACE ( 'NONE', ( #75, #155 ), #135, .T. ) ;
#160 = DIRECTION ( 'NONE',  ( 3.491481338843133355E-15, -1.224646799147353207E-16, 1.000000000000000000 ) ) ;
#161 = AXIS2_PLACEMENT_3D ( 'NONE', #2, #128, #141 ) ;
#162 = CARTESIAN_POINT ( 'NONE',  ( 1.319779946082704535E-13, 0.9999999999999963363, 37.79999999999999716 ) ) ;
#163 = PERSON_AND_ORGANIZATION_ROLE ( 'creator' ) ;
#164 = APPROVAL_STATUS ( 'not_yet_approved' ) ;
#165 = AXIS2_PLACEMENT_3D ( 'NONE', #25, #24, #127 ) ;
#166 = APPROVAL_ROLE ( '' ) ;
#167 = MANIFOLD_SOLID_BREP ( 'Corps-Déplacer/Copier1[1]', #78 ) ;
#168 = COORDINATED_UNIVERSAL_TIME_OFFSET ( 1, 0, .AHEAD. ) ;
#169 = CC_DESIGN_DATE_AND_TIME_ASSIGNMENT ( #61, #83, ( #98 ) ) ;
#170 = CC_DESIGN_SECURITY_CLASSIFICATION ( #98, ( #94 ) ) ;
#171 = ORIENTED_EDGE ( 'NONE', *, *, #60, .T. ) ;
#172 = AXIS2_PLACEMENT_3D ( 'NONE', #157, #54, #7 ) ;
#173 = LOCAL_TIME ( 15, 47, 27.00000000000000000, #132 ) ;
#174 = DIRECTION ( 'NONE',  ( 4.275831445896957731E-31, 1.000000000000000000, 1.224646799147353207E-16 ) ) ;
#175 = DIRECTION ( 'NONE',  ( 4.275831445896958607E-31, 1.000000000000000000, 1.224646799147353207E-16 ) ) ;
#176 = CALENDAR_DATE ( 2021, 7, 10 ) ;
#177 = CARTESIAN_POINT ( 'NONE',  ( 1.326762908760390423E-13, 0.7999999999999964917, 38.00000000000000000 ) ) ;
#178 = CARTESIAN_POINT ( 'NONE',  ( 1.678314910864373584E-15, 0.7999999999999936051, 0.4806884952220497609 ) ) ;
#179 = EDGE_CURVE ( 'NONE', #76, #76, #4, .T. ) ;
#180 = DIRECTION ( 'NONE',  ( -3.491481338843133355E-15, 1.224646799147353207E-16, -1.000000000000000000 ) ) ;
#181 = APPLICATION_PROTOCOL_DEFINITION ( 'international standard', 'config_control_design', 1994, #86 ) ;
#182 = AXIS2_PLACEMENT_3D ( 'NONE', #92, #126, #73 ) ;
#183 = ADVANCED_FACE ( 'NONE', ( #147 ), #36, .T. ) ;
#184 = PERSON_AND_ORGANIZATION ( #222, #55 ) ;
#185 = DATE_AND_TIME ( #57, #173 ) ;
#186 = MECHANICAL_CONTEXT ( 'NONE', #189, 'mechanical' ) ;
#187 = LOCAL_TIME ( 15, 47, 27.00000000000000000, #168 ) ;
#188 = ORIENTED_EDGE ( 'NONE', *, *, #179, .T. ) ;
#189 = APPLICATION_CONTEXT ( 'configuration controlled 3d designs of mechanical parts and assemblies' ) ;
#190 = ORIENTED_EDGE ( 'NONE', *, *, #31, .T. ) ;
#191 = EDGE_LOOP ( 'NONE', ( #171 ) ) ;
#192 = AXIS2_PLACEMENT_3D ( 'NONE', #109, #193, #91 ) ;
#193 = DIRECTION ( 'NONE',  ( 3.491481338843133355E-15, -1.224646799147353207E-16, 1.000000000000000000 ) ) ;
#194 = CYLINDRICAL_SURFACE ( 'NONE', #72, 0.7999999999999938272 ) ;
#195 = CARTESIAN_POINT ( 'NONE',  ( 4.189777606611760026E-14, -1.469576158976823947E-15, 12.00000000000000000 ) ) ;
#196 = CONICAL_SURFACE ( 'NONE', #172, 0.8000000000000011546, 0.7853981633974507215 ) ;
#197 = DIRECTION ( 'NONE',  ( 3.491481338843133355E-15, -1.224646799147353207E-16, 1.000000000000000000 ) ) ;
#198 = APPROVAL_STATUS ( 'not_yet_approved' ) ;
#199 = PERSON_AND_ORGANIZATION ( #222, #55 ) ;
#200 =( NAMED_UNIT ( * ) SI_UNIT ( $, .STERADIAN. ) SOLID_ANGLE_UNIT ( ) );
#201 = PERSON_AND_ORGANIZATION ( #222, #55 ) ;
#202 = DIRECTION ( 'NONE',  ( 0.0000000000000000000, 1.000000000000000000, 0.0000000000000000000 ) ) ;
#203 = SHAPE_DEFINITION_REPRESENTATION ( #95, #74 ) ;
#204 = CLOSED_SHELL ( 'NONE', ( #104, #108, #183 ) ) ;
#205 = APPROVAL_PERSON_ORGANIZATION ( #118, #8, #99 ) ;
#206 = EDGE_LOOP ( 'NONE', ( #219 ) ) ;
#207 = EDGE_LOOP ( 'NONE', ( #188 ) ) ;
#208 = PRODUCT_RELATED_PRODUCT_CATEGORY ( 'detail', '', ( #130 ) ) ;
#209 = DIRECTION ( 'NONE',  ( 0.0000000000000000000, 1.000000000000000000, 0.0000000000000000000 ) ) ;
#210 = CIRCLE ( 'NONE', #59, 1.000000000000000888 ) ;
#211 = DIRECTION ( 'NONE',  ( -3.491481338843133355E-15, 1.224646799147353207E-16, -1.000000000000000000 ) ) ;
#212 = CARTESIAN_POINT ( 'NONE',  ( 4.189777606611760026E-14, 0.7999999999999926059, 12.00000000000000000 ) ) ;
#213 = FACE_OUTER_BOUND ( 'NONE', #85, .T. ) ;
#214 =( NAMED_UNIT ( * ) PLANE_ANGLE_UNIT ( ) SI_UNIT ( $, .RADIAN. ) );
#215 = COORDINATED_UNIVERSAL_TIME_OFFSET ( 1, 0, .AHEAD. ) ;
#216 = ADVANCED_FACE ( 'NONE', ( #142, #51 ), #125, .T. ) ;
#217 = PERSON_AND_ORGANIZATION ( #222, #55 ) ;
#218 = APPROVAL_PERSON_ORGANIZATION ( #58, #64, #166 ) ;
#219 = ORIENTED_EDGE ( 'NONE', *, *, #120, .T. ) ;
#220 = EDGE_CURVE ( 'NONE', #27, #27, #210, .T. ) ;
#221 = CARTESIAN_POINT ( 'NONE',  ( 0.0000000000000000000, 0.0000000000000000000, 0.0000000000000000000 ) ) ;
#222 = PERSON ( 'UNSPECIFIED', 'UNSPECIFIED', 'UNSPECIFIED', ('UNSPECIFIED'), ('UNSPECIFIED'), ('UNSPECIFIED') ) ;
#223 = AXIS2_PLACEMENT_3D ( 'NONE', #39, #37, #174 ) ;
ENDSEC;
END-ISO-10303-21;
