ISO-10303-21;
HEADER;
FILE_DESCRIPTION (( 'STEP AP203' ),
    '1' );
FILE_NAME ('37175.step',
    '2021-12-06T12:59:30',
    ( '' ),
    ( '' ),
    'SwSTEP 2.0',
    'SolidWorks 2019',
    '' );
FILE_SCHEMA (( 'CONFIG_CONTROL_DESIGN' ));
ENDSEC;

DATA;
#1 = DATE_AND_TIME ( #38, #109 ) ;
#2 = SECURITY_CLASSIFICATION_LEVEL ( 'unclassified' ) ;
#3 = CC_DESIGN_PERSON_AND_ORGANIZATION_ASSIGNMENT ( #37, #103, ( #8 ) ) ;
#4 = DIRECTION ( 'NONE',  ( -3.491481338843133355E-15, 1.224646799147353207E-16, -1.000000000000000000 ) ) ;
#5 = FACE_OUTER_BOUND ( 'NONE', #16, .T. ) ;
#6 = CARTESIAN_POINT ( 'NONE',  ( 0.0000000000000000000, 0.0000000000000000000, 0.0000000000000000000 ) ) ;
#7 = ORIENTED_EDGE ( 'NONE', *, *, #135, .T. ) ;
#8 = PRODUCT_DEFINITION_FORMATION_WITH_SPECIFIED_SOURCE ( 'ANY', '', #168, .NOT_KNOWN. ) ;
#9 = APPROVAL ( #80, 'UNSPECIFIED' ) ;
#10 = DATE_TIME_ROLE ( 'classification_date' ) ;
#11 = LOCAL_TIME ( 13, 59, 30.00000000000000000, #118 ) ;
#12 = PERSON_AND_ORGANIZATION_ROLE ( 'design_owner' ) ;
#13 = CALENDAR_DATE ( 2021, 6, 12 ) ;
#14 = COORDINATED_UNIVERSAL_TIME_OFFSET ( 1, 0, .AHEAD. ) ;
#15 = DIRECTION ( 'NONE',  ( -3.491481338843133355E-15, 1.224646799147353207E-16, -1.000000000000000000 ) ) ;
#16 = EDGE_LOOP ( 'NONE', ( #17 ) ) ;
#17 = ORIENTED_EDGE ( 'NONE', *, *, #135, .F. ) ;
#18 = DIRECTION ( 'NONE',  ( -3.491481338843133355E-15, 1.224646799147353207E-16, -1.000000000000000000 ) ) ;
#19 = CARTESIAN_POINT ( 'NONE',  ( 0.0000000000000000000, 2.500000000000000444, 0.0000000000000000000 ) ) ;
#20 = AXIS2_PLACEMENT_3D ( 'NONE', #138, #18, #78 ) ;
#21 = DIRECTION ( 'NONE',  ( 0.0000000000000000000, 0.0000000000000000000, 1.000000000000000000 ) ) ;
#22 = APPROVAL_STATUS ( 'not_yet_approved' ) ;
#23 = EDGE_CURVE ( 'NONE', #45, #45, #116, .T. ) ;
#24 = AXIS2_PLACEMENT_3D ( 'NONE', #95, #110, #84 ) ;
#25 = CARTESIAN_POINT ( 'NONE',  ( 0.0000000000000000000, 0.0000000000000000000, 0.0000000000000000000 ) ) ;
#26 = APPROVAL_STATUS ( 'not_yet_approved' ) ;
#27 = CALENDAR_DATE ( 2021, 6, 12 ) ;
#28 = CC_DESIGN_APPROVAL ( #9, ( #115 ) ) ;
#29 = VERTEX_POINT ( 'NONE', #81 ) ;
#30 = FACE_OUTER_BOUND ( 'NONE', #146, .T. ) ;
#31 = DIRECTION ( 'NONE',  ( -4.275831445896958607E-31, -1.000000000000000000, -1.224646799147353207E-16 ) ) ;
#32 = DIRECTION ( 'NONE',  ( -3.491481338843133355E-15, 1.224646799147353207E-16, -1.000000000000000000 ) ) ;
#33 = CARTESIAN_POINT ( 'NONE',  ( 0.0000000000000000000, 7.500000000000000000, 0.0000000000000000000 ) ) ;
#34 = APPROVAL ( #26, 'UNSPECIFIED' ) ;
#35 = PRODUCT_RELATED_PRODUCT_CATEGORY ( 'detail', '', ( #168 ) ) ;
#36 = AXIS2_PLACEMENT_3D ( 'NONE', #79, #15, #126 ) ;
#37 = PERSON_AND_ORGANIZATION ( #67, #151 ) ;
#38 = CALENDAR_DATE ( 2021, 6, 12 ) ;
#39 = SHAPE_DEFINITION_REPRESENTATION ( #87, #63 ) ;
#40 = LOCAL_TIME ( 13, 59, 30.00000000000000000, #70 ) ;
#41 = APPROVAL_ROLE ( '' ) ;
#42 = APPROVAL_ROLE ( '' ) ;
#43 = AXIS2_PLACEMENT_3D ( 'NONE', #61, #158, #31 ) ;
#44 = PLANE ( 'NONE',  #141 ) ;
#45 = VERTEX_POINT ( 'NONE', #19 ) ;
#46 = UNCERTAINTY_MEASURE_WITH_UNIT (LENGTH_MEASURE( 1.000000000000000082E-05 ), #128, 'distance_accuracy_value', 'NONE');
#47 = DIRECTION ( 'NONE',  ( -3.491481338843133355E-15, 1.224646799147353207E-16, -1.000000000000000000 ) ) ;
#48 = VERTEX_POINT ( 'NONE', #33 ) ;
#49 = ADVANCED_FACE ( 'NONE', ( #113, #5 ), #162, .T. ) ;
#50 = CC_DESIGN_APPROVAL ( #132, ( #167 ) ) ;
#51 = EDGE_CURVE ( 'NONE', #48, #48, #102, .T. ) ;
#52 = CC_DESIGN_PERSON_AND_ORGANIZATION_ASSIGNMENT ( #71, #119, ( #115 ) ) ;
#53 = MECHANICAL_CONTEXT ( 'NONE', #140, 'mechanical' ) ;
#54 = DATE_AND_TIME ( #13, #11 ) ;
#55 = CC_DESIGN_DATE_AND_TIME_ASSIGNMENT ( #54, #10, ( #167 ) ) ;
#56 = PERSON_AND_ORGANIZATION ( #67, #151 ) ;
#57 = CARTESIAN_POINT ( 'NONE',  ( 0.0000000000000000000, 0.0000000000000000000, 0.0000000000000000000 ) ) ;
#58 = APPROVAL_PERSON_ORGANIZATION ( #106, #132, #42 ) ;
#59 = ORIENTED_EDGE ( 'NONE', *, *, #23, .T. ) ;
#60 = EDGE_LOOP ( 'NONE', ( #98 ) ) ;
#61 = CARTESIAN_POINT ( 'NONE',  ( 6.982962677686265133E-15, 2.499999999999999556, 1.999999999999999556 ) ) ;
#62 = EDGE_LOOP ( 'NONE', ( #111 ) ) ;
#63 = ADVANCED_BREP_SHAPE_REPRESENTATION ( '37175', ( #75, #121 ), #94 ) ;
#64 = APPLICATION_CONTEXT ( 'configuration controlled 3d designs of mechanical parts and assemblies' ) ;
#65 = CC_DESIGN_PERSON_AND_ORGANIZATION_ASSIGNMENT ( #105, #12, ( #168 ) ) ;
#66 = CIRCLE ( 'NONE', #24, 7.500000000000000000 ) ;
#67 = PERSON ( 'UNSPECIFIED', 'UNSPECIFIED', 'UNSPECIFIED', ('UNSPECIFIED'), ('UNSPECIFIED'), ('UNSPECIFIED') ) ;
#68 = CC_DESIGN_DATE_AND_TIME_ASSIGNMENT ( #117, #156, ( #115 ) ) ;
#69 = LOCAL_TIME ( 13, 59, 30.00000000000000000, #91 ) ;
#70 = COORDINATED_UNIVERSAL_TIME_OFFSET ( 1, 0, .AHEAD. ) ;
#71 = PERSON_AND_ORGANIZATION ( #67, #151 ) ;
#72 = APPROVAL_ROLE ( '' ) ;
#73 = DESIGN_CONTEXT ( 'detailed design', #64, 'design' ) ;
#74 = PERSON_AND_ORGANIZATION ( #67, #151 ) ;
#75 = MANIFOLD_SOLID_BREP ( 'Corps-Déplacer/Copier1', #142 ) ;
#76 = ORIENTED_EDGE ( 'NONE', *, *, #51, .T. ) ;
#77 = EDGE_LOOP ( 'NONE', ( #59 ) ) ;
#78 = DIRECTION ( 'NONE',  ( 6.162975822039154730E-31, 1.000000000000000000, 1.734723475976807094E-16 ) ) ;
#79 = CARTESIAN_POINT ( 'NONE',  ( -3.206873584422719042E-30, 1.124819836996393096E-31, -9.184850993605147944E-16 ) ) ;
#80 = APPROVAL_STATUS ( 'not_yet_approved' ) ;
#81 = CARTESIAN_POINT ( 'NONE',  ( 6.982962677686266711E-15, 2.499999999999999556, 2.000000000000000000 ) ) ;
#82 = FACE_OUTER_BOUND ( 'NONE', #77, .T. ) ;
#83 = FACE_BOUND ( 'NONE', #60, .T. ) ;
#84 = DIRECTION ( 'NONE',  ( 4.108650548026103445E-31, 1.000000000000000000, 1.156482317317871478E-16 ) ) ;
#85 = VERTEX_POINT ( 'NONE', #133 ) ;
#86 = CC_DESIGN_APPROVAL ( #34, ( #8 ) ) ;
#87 = PRODUCT_DEFINITION_SHAPE ( 'NONE', 'NONE',  #115 ) ;
#88 = DIRECTION ( 'NONE',  ( 1.000000000000000000, 0.0000000000000000000, 0.0000000000000000000 ) ) ;
#89 = DATE_AND_TIME ( #130, #40 ) ;
#90 = APPROVAL_PERSON_ORGANIZATION ( #56, #34, #41 ) ;
#91 = COORDINATED_UNIVERSAL_TIME_OFFSET ( 1, 0, .AHEAD. ) ;
#92 = COORDINATED_UNIVERSAL_TIME_OFFSET ( 1, 0, .AHEAD. ) ;
#93 = CARTESIAN_POINT ( 'NONE',  ( -1.068957861474239739E-30, 3.749399456654644567E-32, -3.061616997868383634E-16 ) ) ;
#94 =( GEOMETRIC_REPRESENTATION_CONTEXT ( 3 ) GLOBAL_UNCERTAINTY_ASSIGNED_CONTEXT ( ( #46 ) ) GLOBAL_UNIT_ASSIGNED_CONTEXT ( ( #128, #101, #153 ) ) REPRESENTATION_CONTEXT ( 'NONE', 'WORKASPACE' ) );
#95 = CARTESIAN_POINT ( 'NONE',  ( 6.982962677686263555E-15, -2.449293598294705428E-16, 1.999999999999999112 ) ) ;
#96 = DIRECTION ( 'NONE',  ( 4.275831445896958607E-31, 1.000000000000000000, 1.224646799147353207E-16 ) ) ;
#97 = ADVANCED_FACE ( 'NONE', ( #108, #83 ), #44, .T. ) ;
#98 = ORIENTED_EDGE ( 'NONE', *, *, #23, .F. ) ;
#99 = ORIENTED_EDGE ( 'NONE', *, *, #159, .T. ) ;
#100 = CC_DESIGN_PERSON_AND_ORGANIZATION_ASSIGNMENT ( #154, #120, ( #167 ) ) ;
#101 =( NAMED_UNIT ( * ) PLANE_ANGLE_UNIT ( ) SI_UNIT ( $, .RADIAN. ) );
#102 = CIRCLE ( 'NONE', #36, 7.500000000000000000 ) ;
#103 = PERSON_AND_ORGANIZATION_ROLE ( 'creator' ) ;
#104 = APPLICATION_PROTOCOL_DEFINITION ( 'international standard', 'config_control_design', 1994, #64 ) ;
#105 = PERSON_AND_ORGANIZATION ( #67, #151 ) ;
#106 = PERSON_AND_ORGANIZATION ( #67, #151 ) ;
#107 = CALENDAR_DATE ( 2021, 6, 12 ) ;
#108 = FACE_OUTER_BOUND ( 'NONE', #112, .T. ) ;
#109 = LOCAL_TIME ( 13, 59, 30.00000000000000000, #92 ) ;
#110 = DIRECTION ( 'NONE',  ( -3.491481338843133355E-15, 1.224646799147353207E-16, -1.000000000000000000 ) ) ;
#111 = ORIENTED_EDGE ( 'NONE', *, *, #159, .F. ) ;
#112 = EDGE_LOOP ( 'NONE', ( #76 ) ) ;
#113 = FACE_BOUND ( 'NONE', #136, .T. ) ;
#114 = ADVANCED_FACE ( 'NONE', ( #152, #30 ), #165, .T. ) ;
#115 = PRODUCT_DEFINITION ( 'UNKNOWN', '', #8, #73 ) ;
#116 = CIRCLE ( 'NONE', #127, 2.500000000000000444 ) ;
#117 = DATE_AND_TIME ( #27, #169 ) ;
#118 = COORDINATED_UNIVERSAL_TIME_OFFSET ( 1, 0, .AHEAD. ) ;
#119 = PERSON_AND_ORGANIZATION_ROLE ( 'creator' ) ;
#120 = PERSON_AND_ORGANIZATION_ROLE ( 'classification_officer' ) ;
#121 = AXIS2_PLACEMENT_3D ( 'NONE', #25, #21, #88 ) ;
#122 = CC_DESIGN_PERSON_AND_ORGANIZATION_ASSIGNMENT ( #74, #144, ( #8 ) ) ;
#123 = ORIENTED_EDGE ( 'NONE', *, *, #51, .F. ) ;
#124 = CIRCLE ( 'NONE', #20, 2.500000000000000000 ) ;
#125 = DIRECTION ( 'NONE',  ( 4.275831445896958607E-31, 1.000000000000000000, 1.224646799147353207E-16 ) ) ;
#126 = DIRECTION ( 'NONE',  ( 4.275831445896958607E-31, 1.000000000000000000, 1.224646799147352961E-16 ) ) ;
#127 = AXIS2_PLACEMENT_3D ( 'NONE', #93, #4, #96 ) ;
#128 =( LENGTH_UNIT ( ) NAMED_UNIT ( * ) SI_UNIT ( .MILLI., .METRE. ) );
#129 = APPLICATION_PROTOCOL_DEFINITION ( 'international standard', 'config_control_design', 1994, #140 ) ;
#130 = CALENDAR_DATE ( 2021, 6, 12 ) ;
#131 = APPROVAL_DATE_TIME ( #155, #34 ) ;
#132 = APPROVAL ( #22, 'UNSPECIFIED' ) ;
#133 = CARTESIAN_POINT ( 'NONE',  ( 6.982962677686266711E-15, 7.500000000000000000, 2.000000000000000000 ) ) ;
#134 = FACE_OUTER_BOUND ( 'NONE', #62, .T. ) ;
#135 = EDGE_CURVE ( 'NONE', #85, #85, #66, .T. ) ;
#136 = EDGE_LOOP ( 'NONE', ( #99 ) ) ;
#137 = APPROVAL_PERSON_ORGANIZATION ( #157, #9, #72 ) ;
#138 = CARTESIAN_POINT ( 'NONE',  ( 6.982962677686265133E-15, -2.449293598294705921E-16, 1.999999999999999556 ) ) ;
#139 = CYLINDRICAL_SURFACE ( 'NONE', #160, 2.500000000000000444 ) ;
#140 = APPLICATION_CONTEXT ( 'configuration controlled 3d designs of mechanical parts and assemblies' ) ;
#141 = AXIS2_PLACEMENT_3D ( 'NONE', #149, #32, #125 ) ;
#142 = CLOSED_SHELL ( 'NONE', ( #97, #114, #49, #166 ) ) ;
#143 = APPROVAL_DATE_TIME ( #89, #9 ) ;
#144 = PERSON_AND_ORGANIZATION_ROLE ( 'design_supplier' ) ;
#145 = APPROVAL_DATE_TIME ( #1, #132 ) ;
#146 = EDGE_LOOP ( 'NONE', ( #123 ) ) ;
#147 = CC_DESIGN_SECURITY_CLASSIFICATION ( #167, ( #8 ) ) ;
#148 = EDGE_LOOP ( 'NONE', ( #7 ) ) ;
#149 = CARTESIAN_POINT ( 'NONE',  ( -1.068957861474239389E-30, 2.500000000000000444, -3.061616997868382648E-16 ) ) ;
#150 = DIRECTION ( 'NONE',  ( 4.275831445896958607E-31, 1.000000000000000000, 1.224646799147352961E-16 ) ) ;
#151 = ORGANIZATION ( 'UNSPECIFIED', 'UNSPECIFIED', '' ) ;
#152 = FACE_OUTER_BOUND ( 'NONE', #148, .T. ) ;
#153 =( NAMED_UNIT ( * ) SI_UNIT ( $, .STERADIAN. ) SOLID_ANGLE_UNIT ( ) );
#154 = PERSON_AND_ORGANIZATION ( #67, #151 ) ;
#155 = DATE_AND_TIME ( #107, #69 ) ;
#156 = DATE_TIME_ROLE ( 'creation_date' ) ;
#157 = PERSON_AND_ORGANIZATION ( #67, #151 ) ;
#158 = DIRECTION ( 'NONE',  ( 3.491481338843133355E-15, -1.224646799147353207E-16, 1.000000000000000000 ) ) ;
#159 = EDGE_CURVE ( 'NONE', #29, #29, #124, .T. ) ;
#160 = AXIS2_PLACEMENT_3D ( 'NONE', #6, #163, #161 ) ;
#161 = DIRECTION ( 'NONE',  ( 4.275831445896958607E-31, 1.000000000000000000, 1.224646799147353207E-16 ) ) ;
#162 = PLANE ( 'NONE',  #43 ) ;
#163 = DIRECTION ( 'NONE',  ( -3.491481338843133355E-15, 1.224646799147353207E-16, -1.000000000000000000 ) ) ;
#164 = AXIS2_PLACEMENT_3D ( 'NONE', #57, #47, #150 ) ;
#165 = CYLINDRICAL_SURFACE ( 'NONE', #164, 7.500000000000000000 ) ;
#166 = ADVANCED_FACE ( 'NONE', ( #82, #134 ), #139, .F. ) ;
#167 = SECURITY_CLASSIFICATION ( '', '', #2 ) ;
#168 = PRODUCT ( '37175', '37175', '', ( #53 ) ) ;
#169 = LOCAL_TIME ( 13, 59, 30.00000000000000000, #14 ) ;
ENDSEC;
END-ISO-10303-21;
