ISO-10303-21;
HEADER;
FILE_DESCRIPTION (( 'STEP AP203' ),
    '1' );
FILE_NAME ('37174.step',
    '2021-12-06T12:59:29',
    ( '' ),
    ( '' ),
    'SwSTEP 2.0',
    'SolidWorks 2019',
    '' );
FILE_SCHEMA (( 'CONFIG_CONTROL_DESIGN' ));
ENDSEC;

DATA;
#1 = EDGE_CURVE ( 'NONE', #47, #47, #103, .T. ) ;
#2 = FACE_BOUND ( 'NONE', #134, .T. ) ;
#3 = LOCAL_TIME ( 13, 59, 29.00000000000000000, #43 ) ;
#4 = ORIENTED_EDGE ( 'NONE', *, *, #55, .F. ) ;
#5 = DIRECTION ( 'NONE',  ( -3.491481338843133355E-15, 1.224646799147353207E-16, -1.000000000000000000 ) ) ;
#6 = FACE_OUTER_BOUND ( 'NONE', #104, .T. ) ;
#7 = AXIS2_PLACEMENT_3D ( 'NONE', #78, #102, #137 ) ;
#8 = SECURITY_CLASSIFICATION_LEVEL ( 'unclassified' ) ;
#9 = ADVANCED_BREP_SHAPE_REPRESENTATION ( '37174', ( #118, #73 ), #97 ) ;
#10 = CARTESIAN_POINT ( 'NONE',  ( 4.189777606611759237E-15, 7.500000000000000000, 1.199999999999999956 ) ) ;
#11 = EDGE_CURVE ( 'NONE', #42, #42, #133, .T. ) ;
#12 = COORDINATED_UNIVERSAL_TIME_OFFSET ( 1, 0, .AHEAD. ) ;
#13 =( NAMED_UNIT ( * ) SI_UNIT ( $, .STERADIAN. ) SOLID_ANGLE_UNIT ( ) );
#14 = PRODUCT ( '37174', '37174', '', ( #85 ) ) ;
#15 = DATE_TIME_ROLE ( 'classification_date' ) ;
#16 = DIRECTION ( 'NONE',  ( 4.275831445896958607E-31, 1.000000000000000000, 1.224646799147352961E-16 ) ) ;
#17 = DIRECTION ( 'NONE',  ( -3.491481338843133355E-15, 1.224646799147353207E-16, -1.000000000000000000 ) ) ;
#18 = APPLICATION_CONTEXT ( 'configuration controlled 3d designs of mechanical parts and assemblies' ) ;
#19 = FACE_OUTER_BOUND ( 'NONE', #136, .T. ) ;
#20 = FACE_OUTER_BOUND ( 'NONE', #154, .T. ) ;
#21 = PRODUCT_DEFINITION ( 'UNKNOWN', '', #93, #149 ) ;
#22 = CALENDAR_DATE ( 2021, 6, 12 ) ;
#23 = AXIS2_PLACEMENT_3D ( 'NONE', #80, #76, #16 ) ;
#24 = CC_DESIGN_SECURITY_CLASSIFICATION ( #70, ( #93 ) ) ;
#25 = APPROVAL_STATUS ( 'not_yet_approved' ) ;
#26 = PERSON_AND_ORGANIZATION_ROLE ( 'classification_officer' ) ;
#27 = PERSON_AND_ORGANIZATION ( #38, #125 ) ;
#28 = APPROVAL_PERSON_ORGANIZATION ( #166, #49, #140 ) ;
#29 = CARTESIAN_POINT ( 'NONE',  ( 4.189777606611756871E-15, -1.469576158976822813E-16, 1.199999999999999067 ) ) ;
#30 = CARTESIAN_POINT ( 'NONE',  ( 0.0000000000000000000, 0.0000000000000000000, 0.0000000000000000000 ) ) ;
#31 = EDGE_LOOP ( 'NONE', ( #4 ) ) ;
#32 = CC_DESIGN_PERSON_AND_ORGANIZATION_ASSIGNMENT ( #27, #112, ( #14 ) ) ;
#33 = PRODUCT_RELATED_PRODUCT_CATEGORY ( 'detail', '', ( #14 ) ) ;
#34 = VERTEX_POINT ( 'NONE', #10 ) ;
#35 = DATE_AND_TIME ( #75, #145 ) ;
#36 = ADVANCED_FACE ( 'NONE', ( #19, #20 ), #39, .T. ) ;
#37 = DIRECTION ( 'NONE',  ( 4.275831445896958607E-31, 1.000000000000000000, 1.224646799147353207E-16 ) ) ;
#38 = PERSON ( 'UNSPECIFIED', 'UNSPECIFIED', 'UNSPECIFIED', ('UNSPECIFIED'), ('UNSPECIFIED'), ('UNSPECIFIED') ) ;
#39 = CYLINDRICAL_SURFACE ( 'NONE', #23, 7.500000000000000000 ) ;
#40 = ORIENTED_EDGE ( 'NONE', *, *, #55, .T. ) ;
#41 = DATE_AND_TIME ( #128, #3 ) ;
#42 = VERTEX_POINT ( 'NONE', #84 ) ;
#43 = COORDINATED_UNIVERSAL_TIME_OFFSET ( 1, 0, .AHEAD. ) ;
#44 = PLANE ( 'NONE',  #7 ) ;
#45 = DIRECTION ( 'NONE',  ( -3.491481338843133355E-15, 1.224646799147353207E-16, -1.000000000000000000 ) ) ;
#46 = UNCERTAINTY_MEASURE_WITH_UNIT (LENGTH_MEASURE( 1.000000000000000082E-05 ), #96, 'distance_accuracy_value', 'NONE');
#47 = VERTEX_POINT ( 'NONE', #53 ) ;
#48 = FACE_OUTER_BOUND ( 'NONE', #138, .T. ) ;
#49 = APPROVAL ( #94, 'UNSPECIFIED' ) ;
#50 = CARTESIAN_POINT ( 'NONE',  ( 4.189777606611758449E-15, -1.469576158976823553E-16, 1.199999999999999734 ) ) ;
#51 = CALENDAR_DATE ( 2021, 6, 12 ) ;
#52 = CIRCLE ( 'NONE', #106, 7.500000000000000000 ) ;
#53 = CARTESIAN_POINT ( 'NONE',  ( 4.189777606611759237E-15, 2.500000000000000000, 1.199999999999999956 ) ) ;
#54 = DATE_AND_TIME ( #51, #126 ) ;
#55 = EDGE_CURVE ( 'NONE', #34, #34, #52, .T. ) ;
#56 = CC_DESIGN_PERSON_AND_ORGANIZATION_ASSIGNMENT ( #127, #142, ( #93 ) ) ;
#57 = CLOSED_SHELL ( 'NONE', ( #99, #36, #135, #67 ) ) ;
#58 = APPROVAL_DATE_TIME ( #35, #123 ) ;
#59 = CARTESIAN_POINT ( 'NONE',  ( -1.068957861474239389E-30, 2.500000000000000444, -3.061616997868382648E-16 ) ) ;
#60 = AXIS2_PLACEMENT_3D ( 'NONE', #30, #5, #77 ) ;
#61 = ORIENTED_EDGE ( 'NONE', *, *, #1, .T. ) ;
#62 = DIRECTION ( 'NONE',  ( 3.081487911019577365E-31, 1.000000000000000000, 8.673617379884035472E-17 ) ) ;
#63 = DIRECTION ( 'NONE',  ( 4.108650548026103445E-31, 1.000000000000000000, 1.156482317317871478E-16 ) ) ;
#64 = LOCAL_TIME ( 13, 59, 29.00000000000000000, #98 ) ;
#65 = PERSON_AND_ORGANIZATION_ROLE ( 'creator' ) ;
#66 = PERSON_AND_ORGANIZATION ( #38, #125 ) ;
#67 = ADVANCED_FACE ( 'NONE', ( #152, #6 ), #122, .F. ) ;
#68 =( NAMED_UNIT ( * ) PLANE_ANGLE_UNIT ( ) SI_UNIT ( $, .RADIAN. ) );
#69 = APPLICATION_PROTOCOL_DEFINITION ( 'international standard', 'config_control_design', 1994, #146 ) ;
#70 = SECURITY_CLASSIFICATION ( '', '', #8 ) ;
#71 = CALENDAR_DATE ( 2021, 6, 12 ) ;
#72 = PRODUCT_DEFINITION_SHAPE ( 'NONE', 'NONE',  #21 ) ;
#73 = AXIS2_PLACEMENT_3D ( 'NONE', #113, #144, #143 ) ;
#74 = APPROVAL_ROLE ( '' ) ;
#75 = CALENDAR_DATE ( 2021, 6, 12 ) ;
#76 = DIRECTION ( 'NONE',  ( -3.491481338843133355E-15, 1.224646799147353207E-16, -1.000000000000000000 ) ) ;
#77 = DIRECTION ( 'NONE',  ( 4.275831445896958607E-31, 1.000000000000000000, 1.224646799147353207E-16 ) ) ;
#78 = CARTESIAN_POINT ( 'NONE',  ( 4.189777606611758449E-15, 2.500000000000000000, 1.199999999999999734 ) ) ;
#79 = AXIS2_PLACEMENT_3D ( 'NONE', #160, #17, #124 ) ;
#80 = CARTESIAN_POINT ( 'NONE',  ( 0.0000000000000000000, 0.0000000000000000000, 0.0000000000000000000 ) ) ;
#81 = DIRECTION ( 'NONE',  ( -3.491481338843133355E-15, 1.224646799147353207E-16, -1.000000000000000000 ) ) ;
#82 = DATE_TIME_ROLE ( 'creation_date' ) ;
#83 = AXIS2_PLACEMENT_3D ( 'NONE', #59, #162, #37 ) ;
#84 = CARTESIAN_POINT ( 'NONE',  ( 0.0000000000000000000, 7.500000000000000000, 0.0000000000000000000 ) ) ;
#85 = MECHANICAL_CONTEXT ( 'NONE', #146, 'mechanical' ) ;
#86 = APPROVAL_DATE_TIME ( #156, #49 ) ;
#87 = AXIS2_PLACEMENT_3D ( 'NONE', #107, #45, #139 ) ;
#88 = LOCAL_TIME ( 13, 59, 29.00000000000000000, #129 ) ;
#89 = ORIENTED_EDGE ( 'NONE', *, *, #95, .F. ) ;
#90 = FACE_OUTER_BOUND ( 'NONE', #31, .T. ) ;
#91 = ORIENTED_EDGE ( 'NONE', *, *, #11, .T. ) ;
#92 = VERTEX_POINT ( 'NONE', #165 ) ;
#93 = PRODUCT_DEFINITION_FORMATION_WITH_SPECIFIED_SOURCE ( 'ANY', '', #14, .NOT_KNOWN. ) ;
#94 = APPROVAL_STATUS ( 'not_yet_approved' ) ;
#95 = EDGE_CURVE ( 'NONE', #92, #92, #157, .T. ) ;
#96 =( LENGTH_UNIT ( ) NAMED_UNIT ( * ) SI_UNIT ( .MILLI., .METRE. ) );
#97 =( GEOMETRIC_REPRESENTATION_CONTEXT ( 3 ) GLOBAL_UNCERTAINTY_ASSIGNED_CONTEXT ( ( #46 ) ) GLOBAL_UNIT_ASSIGNED_CONTEXT ( ( #96, #68, #13 ) ) REPRESENTATION_CONTEXT ( 'NONE', 'WORKASPACE' ) );
#98 = COORDINATED_UNIVERSAL_TIME_OFFSET ( 1, 0, .AHEAD. ) ;
#99 = ADVANCED_FACE ( 'NONE', ( #48, #105 ), #119, .T. ) ;
#100 = COORDINATED_UNIVERSAL_TIME_OFFSET ( 1, 0, .AHEAD. ) ;
#101 = CC_DESIGN_PERSON_AND_ORGANIZATION_ASSIGNMENT ( #130, #65, ( #93 ) ) ;
#102 = DIRECTION ( 'NONE',  ( 3.491481338843133355E-15, -1.224646799147353207E-16, 1.000000000000000000 ) ) ;
#103 = CIRCLE ( 'NONE', #163, 2.500000000000000000 ) ;
#104 = EDGE_LOOP ( 'NONE', ( #120 ) ) ;
#105 = FACE_BOUND ( 'NONE', #161, .T. ) ;
#106 = AXIS2_PLACEMENT_3D ( 'NONE', #29, #148, #63 ) ;
#107 = CARTESIAN_POINT ( 'NONE',  ( -3.206873584422719042E-30, 1.124819836996393096E-31, -9.184850993605147944E-16 ) ) ;
#108 = APPROVAL ( #25, 'UNSPECIFIED' ) ;
#109 = APPROVAL_ROLE ( '' ) ;
#110 = APPLICATION_PROTOCOL_DEFINITION ( 'international standard', 'config_control_design', 1994, #18 ) ;
#111 = CC_DESIGN_APPROVAL ( #49, ( #93 ) ) ;
#112 = PERSON_AND_ORGANIZATION_ROLE ( 'design_owner' ) ;
#113 = CARTESIAN_POINT ( 'NONE',  ( 0.0000000000000000000, 0.0000000000000000000, 0.0000000000000000000 ) ) ;
#114 = DATE_AND_TIME ( #71, #64 ) ;
#115 = CC_DESIGN_APPROVAL ( #108, ( #21 ) ) ;
#116 = SHAPE_DEFINITION_REPRESENTATION ( #72, #9 ) ;
#117 = APPROVAL_STATUS ( 'not_yet_approved' ) ;
#118 = MANIFOLD_SOLID_BREP ( 'Corps-Déplacer/Copier1', #57 ) ;
#119 = PLANE ( 'NONE',  #83 ) ;
#120 = ORIENTED_EDGE ( 'NONE', *, *, #1, .F. ) ;
#121 = ORIENTED_EDGE ( 'NONE', *, *, #11, .F. ) ;
#122 = CYLINDRICAL_SURFACE ( 'NONE', #60, 2.500000000000000444 ) ;
#123 = APPROVAL ( #117, 'UNSPECIFIED' ) ;
#124 = DIRECTION ( 'NONE',  ( 4.275831445896958607E-31, 1.000000000000000000, 1.224646799147353207E-16 ) ) ;
#125 = ORGANIZATION ( 'UNSPECIFIED', 'UNSPECIFIED', '' ) ;
#126 = LOCAL_TIME ( 13, 59, 29.00000000000000000, #12 ) ;
#127 = PERSON_AND_ORGANIZATION ( #38, #125 ) ;
#128 = CALENDAR_DATE ( 2021, 6, 12 ) ;
#129 = COORDINATED_UNIVERSAL_TIME_OFFSET ( 1, 0, .AHEAD. ) ;
#130 = PERSON_AND_ORGANIZATION ( #38, #125 ) ;
#131 = CC_DESIGN_DATE_AND_TIME_ASSIGNMENT ( #41, #82, ( #21 ) ) ;
#132 = PERSON_AND_ORGANIZATION ( #38, #125 ) ;
#133 = CIRCLE ( 'NONE', #87, 7.500000000000000000 ) ;
#134 = EDGE_LOOP ( 'NONE', ( #61 ) ) ;
#135 = ADVANCED_FACE ( 'NONE', ( #2, #90 ), #44, .T. ) ;
#136 = EDGE_LOOP ( 'NONE', ( #40 ) ) ;
#137 = DIRECTION ( 'NONE',  ( -4.275831445896958607E-31, -1.000000000000000000, -1.224646799147353207E-16 ) ) ;
#138 = EDGE_LOOP ( 'NONE', ( #91 ) ) ;
#139 = DIRECTION ( 'NONE',  ( 4.275831445896958607E-31, 1.000000000000000000, 1.224646799147352961E-16 ) ) ;
#140 = APPROVAL_ROLE ( '' ) ;
#141 = PERSON_AND_ORGANIZATION_ROLE ( 'creator' ) ;
#142 = PERSON_AND_ORGANIZATION_ROLE ( 'design_supplier' ) ;
#143 = DIRECTION ( 'NONE',  ( 1.000000000000000000, 0.0000000000000000000, 0.0000000000000000000 ) ) ;
#144 = DIRECTION ( 'NONE',  ( 0.0000000000000000000, 0.0000000000000000000, 1.000000000000000000 ) ) ;
#145 = LOCAL_TIME ( 13, 59, 29.00000000000000000, #100 ) ;
#146 = APPLICATION_CONTEXT ( 'configuration controlled 3d designs of mechanical parts and assemblies' ) ;
#147 = APPROVAL_PERSON_ORGANIZATION ( #66, #108, #109 ) ;
#148 = DIRECTION ( 'NONE',  ( -3.491481338843133355E-15, 1.224646799147353207E-16, -1.000000000000000000 ) ) ;
#149 = DESIGN_CONTEXT ( 'detailed design', #18, 'design' ) ;
#150 = EDGE_LOOP ( 'NONE', ( #153 ) ) ;
#151 = CC_DESIGN_DATE_AND_TIME_ASSIGNMENT ( #54, #15, ( #70 ) ) ;
#152 = FACE_OUTER_BOUND ( 'NONE', #150, .T. ) ;
#153 = ORIENTED_EDGE ( 'NONE', *, *, #95, .T. ) ;
#154 = EDGE_LOOP ( 'NONE', ( #121 ) ) ;
#155 = PERSON_AND_ORGANIZATION ( #38, #125 ) ;
#156 = DATE_AND_TIME ( #22, #88 ) ;
#157 = CIRCLE ( 'NONE', #79, 2.500000000000000444 ) ;
#158 = CC_DESIGN_APPROVAL ( #123, ( #70 ) ) ;
#159 = CC_DESIGN_PERSON_AND_ORGANIZATION_ASSIGNMENT ( #167, #141, ( #21 ) ) ;
#160 = CARTESIAN_POINT ( 'NONE',  ( -1.068957861474239739E-30, 3.749399456654644567E-32, -3.061616997868383634E-16 ) ) ;
#161 = EDGE_LOOP ( 'NONE', ( #89 ) ) ;
#162 = DIRECTION ( 'NONE',  ( -3.491481338843133355E-15, 1.224646799147353207E-16, -1.000000000000000000 ) ) ;
#163 = AXIS2_PLACEMENT_3D ( 'NONE', #50, #81, #62 ) ;
#164 = APPROVAL_PERSON_ORGANIZATION ( #132, #123, #74 ) ;
#165 = CARTESIAN_POINT ( 'NONE',  ( 0.0000000000000000000, 2.500000000000000444, 0.0000000000000000000 ) ) ;
#166 = PERSON_AND_ORGANIZATION ( #38, #125 ) ;
#167 = PERSON_AND_ORGANIZATION ( #38, #125 ) ;
#168 = CC_DESIGN_PERSON_AND_ORGANIZATION_ASSIGNMENT ( #155, #26, ( #70 ) ) ;
#169 = APPROVAL_DATE_TIME ( #114, #108 ) ;
ENDSEC;
END-ISO-10303-21;
