ISO-10303-21;
HEADER;
FILE_DESCRIPTION (( 'STEP AP203' ),
    '1' );
FILE_NAME ('37152.step',
    '2021-11-17T10:13:22',
    ( '' ),
    ( '' ),
    'SwSTEP 2.0',
    'SolidWorks 2019',
    '' );
FILE_SCHEMA (( 'CONFIG_CONTROL_DESIGN' ));
ENDSEC;

DATA;
#1 = APPROVAL_ROLE ( '' ) ;
#2 =( NAMED_UNIT ( * ) PLANE_ANGLE_UNIT ( ) SI_UNIT ( $, .RADIAN. ) );
#3 = AXIS2_PLACEMENT_3D ( 'NONE', #170, #151, #28 ) ;
#4 = CARTESIAN_POINT ( 'NONE',  ( -8.334577528171004140E-30, -9.799999999999998934, -2.387117879006789028E-15 ) ) ;
#5 = CLOSED_SHELL ( 'NONE', ( #72, #63, #129, #145 ) ) ;
#6 = PERSON_AND_ORGANIZATION_ROLE ( 'classification_officer' ) ;
#7 = DIRECTION ( 'NONE',  ( 4.275831445896958607E-31, 1.000000000000000000, 1.224646799147353454E-16 ) ) ;
#8 = APPROVAL_DATE_TIME ( #35, #67 ) ;
#9 = AXIS2_PLACEMENT_3D ( 'NONE', #128, #112, #188 ) ;
#10 = EDGE_LOOP ( 'NONE', ( #125 ) ) ;
#11 = PLANE ( 'NONE',  #181 ) ;
#12 = PRODUCT_DEFINITION ( 'UNKNOWN', '', #217, #93 ) ;
#13 = DIRECTION ( 'NONE',  ( -4.237045877651918877E-31, -1.000000000000000000, -1.219727444046192488E-16 ) ) ;
#14 = EDGE_LOOP ( 'NONE', ( #58 ) ) ;
#15 = AXIS2_PLACEMENT_3D ( 'NONE', #202, #189, #47 ) ;
#16 = CC_DESIGN_PERSON_AND_ORGANIZATION_ASSIGNMENT ( #73, #6, ( #123 ) ) ;
#17 = CARTESIAN_POINT ( 'NONE',  ( 3.631140592396858689E-13, 8.999999999999987566, 104.0000000000000000 ) ) ;
#18 = DIRECTION ( 'NONE',  ( -3.491481338843133355E-15, 1.224646799147353454E-16, -1.000000000000000000 ) ) ;
#19 = LOCAL_TIME ( 11, 13, 22.00000000000000000, #175 ) ;
#20 = FACE_OUTER_BOUND ( 'NONE', #136, .T. ) ;
#21 = CYLINDRICAL_SURFACE ( 'NONE', #204, 9.999999999999998224 ) ;
#22 = SHAPE_DEFINITION_REPRESENTATION ( #104, #216 ) ;
#23 = CC_DESIGN_APPROVAL ( #134, ( #12 ) ) ;
#24 = SECURITY_CLASSIFICATION_LEVEL ( 'unclassified' ) ;
#25 = FACE_OUTER_BOUND ( 'NONE', #127, .T. ) ;
#26 = CARTESIAN_POINT ( 'NONE',  ( 1.396592535537253342E-13, 7.498798913309283660E-32, 40.00000000000000000 ) ) ;
#27 = CYLINDRICAL_SURFACE ( 'NONE', #97, 10.00000000000000000 ) ;
#28 = DIRECTION ( 'NONE',  ( 0.0000000000000000000, 1.000000000000000000, 0.0000000000000000000 ) ) ;
#29 = DIRECTION ( 'NONE',  ( -3.491481338843133355E-15, 1.224646799147353454E-16, -1.000000000000000000 ) ) ;
#30 = CARTESIAN_POINT ( 'NONE',  ( 3.596225779008427482E-13, 9.999999999999985789, 103.0000000000000142 ) ) ;
#31 = ADVANCED_FACE ( 'NONE', ( #20, #146 ), #21, .T. ) ;
#32 =( NAMED_UNIT ( * ) SI_UNIT ( $, .STERADIAN. ) SOLID_ANGLE_UNIT ( ) );
#33 = APPLICATION_PROTOCOL_DEFINITION ( 'international standard', 'config_control_design', 1994, #147 ) ;
#34 = EDGE_CURVE ( 'NONE', #120, #120, #192, .T. ) ;
#35 = DATE_AND_TIME ( #194, #19 ) ;
#36 = LOCAL_TIME ( 11, 13, 22.00000000000000000, #159 ) ;
#37 = DIRECTION ( 'NONE',  ( 1.000000000000000000, 0.0000000000000000000, 0.0000000000000000000 ) ) ;
#38 = PERSON_AND_ORGANIZATION ( #163, #122 ) ;
#39 = AXIS2_PLACEMENT_3D ( 'NONE', #187, #160, #94 ) ;
#40 = DATE_TIME_ROLE ( 'classification_date' ) ;
#41 = PRODUCT ( '37152', '37152', '', ( #177 ) ) ;
#42 = APPROVAL_ROLE ( '' ) ;
#43 = ORIENTED_EDGE ( 'NONE', *, *, #91, .F. ) ;
#44 = FACE_BOUND ( 'NONE', #219, .T. ) ;
#45 = CARTESIAN_POINT ( 'NONE',  ( 0.0000000000000000000, 0.0000000000000000000, 0.0000000000000000000 ) ) ;
#46 = ADVANCED_FACE ( 'NONE', ( #96 ), #166, .F. ) ;
#47 = DIRECTION ( 'NONE',  ( 0.0000000000000000000, 1.000000000000000000, 0.0000000000000000000 ) ) ;
#48 = EDGE_LOOP ( 'NONE', ( #43 ) ) ;
#49 = DIRECTION ( 'NONE',  ( 4.275831445896958607E-31, 1.000000000000000000, 1.224646799147353454E-16 ) ) ;
#50 = ORIENTED_EDGE ( 'NONE', *, *, #34, .T. ) ;
#51 = CALENDAR_DATE ( 2021, 17, 11 ) ;
#52 = AXIS2_PLACEMENT_3D ( 'NONE', #77, #74, #215 ) ;
#53 = PERSON_AND_ORGANIZATION ( #163, #122 ) ;
#54 = APPROVAL_STATUS ( 'not_yet_approved' ) ;
#55 = CC_DESIGN_DATE_AND_TIME_ASSIGNMENT ( #165, #40, ( #123 ) ) ;
#56 = LOCAL_TIME ( 11, 13, 22.00000000000000000, #162 ) ;
#57 = ADVANCED_FACE ( 'NONE', ( #149 ), #220, .F. ) ;
#58 = ORIENTED_EDGE ( 'NONE', *, *, #186, .T. ) ;
#59 = FACE_OUTER_BOUND ( 'NONE', #14, .T. ) ;
#60 = DIRECTION ( 'NONE',  ( 4.275831445896959482E-31, 1.000000000000000000, 1.224646799147353454E-16 ) ) ;
#61 = CARTESIAN_POINT ( 'NONE',  ( 3.596225779008427482E-13, -1.261386203121774077E-14, 103.0000000000000142 ) ) ;
#62 = DIRECTION ( 'NONE',  ( 3.491481338843133355E-15, -1.224646799147353454E-16, 1.000000000000000000 ) ) ;
#63 = ADVANCED_FACE ( 'NONE', ( #25 ), #11, .T. ) ;
#64 = PERSON_AND_ORGANIZATION ( #163, #122 ) ;
#65 = PERSON_AND_ORGANIZATION ( #163, #122 ) ;
#66 = DATE_AND_TIME ( #212, #36 ) ;
#67 = APPROVAL ( #54, 'UNSPECIFIED' ) ;
#68 = VERTEX_POINT ( 'NONE', #87 ) ;
#69 = CARTESIAN_POINT ( 'NONE',  ( 0.0000000000000000000, 0.0000000000000000000, 0.0000000000000000000 ) ) ;
#70 =( GEOMETRIC_REPRESENTATION_CONTEXT ( 3 ) GLOBAL_UNCERTAINTY_ASSIGNED_CONTEXT ( ( #184 ) ) GLOBAL_UNIT_ASSIGNED_CONTEXT ( ( #155, #2, #32 ) ) REPRESENTATION_CONTEXT ( 'NONE', 'WORKASPACE' ) );
#71 = CC_DESIGN_APPROVAL ( #210, ( #123 ) ) ;
#72 = ADVANCED_FACE ( 'NONE', ( #152, #59 ), #27, .T. ) ;
#73 = PERSON_AND_ORGANIZATION ( #163, #122 ) ;
#74 = DIRECTION ( 'NONE',  ( 3.491481338843133355E-15, -1.224646799147353454E-16, 1.000000000000000000 ) ) ;
#75 = CALENDAR_DATE ( 2021, 17, 11 ) ;
#76 = AXIS2_PLACEMENT_3D ( 'NONE', #69, #158, #37 ) ;
#77 = CARTESIAN_POINT ( 'NONE',  ( 1.396592535537253342E-13, 7.498798913309283660E-32, 40.00000000000000000 ) ) ;
#78 = APPROVAL_STATUS ( 'not_yet_approved' ) ;
#79 = CARTESIAN_POINT ( 'NONE',  ( 3.596225779008427482E-13, -1.261386203121774077E-14, 103.0000000000000142 ) ) ;
#80 = CIRCLE ( 'NONE', #140, 9.999999999999998224 ) ;
#81 = CC_DESIGN_SECURITY_CLASSIFICATION ( #123, ( #217 ) ) ;
#82 = DIRECTION ( 'NONE',  ( -3.491481338843133355E-15, 1.224646799147353454E-16, -1.000000000000000000 ) ) ;
#83 = ORIENTED_EDGE ( 'NONE', *, *, #211, .T. ) ;
#84 = AXIS2_PLACEMENT_3D ( 'NONE', #116, #138, #178 ) ;
#85 = PERSON_AND_ORGANIZATION ( #163, #122 ) ;
#86 = MANIFOLD_SOLID_BREP ( 'Corps-Déplacer/Copier1[2]', #5 ) ;
#87 = CARTESIAN_POINT ( 'NONE',  ( 1.396592535537253342E-13, 9.999999999999994671, 40.00000000000000000 ) ) ;
#88 = LOCAL_TIME ( 11, 13, 22.00000000000000000, #141 ) ;
#89 = APPLICATION_PROTOCOL_DEFINITION ( 'international standard', 'config_control_design', 1994, #172 ) ;
#90 = DIRECTION ( 'NONE',  ( 0.0000000000000000000, 1.000000000000000000, 0.0000000000000000000 ) ) ;
#91 = EDGE_CURVE ( 'NONE', #108, #108, #80, .T. ) ;
#92 = DIRECTION ( 'NONE',  ( -3.491481338843133355E-15, 1.224646799147353454E-16, -1.000000000000000000 ) ) ;
#93 = DESIGN_CONTEXT ( 'detailed design', #172, 'design' ) ;
#94 = DIRECTION ( 'NONE',  ( -4.252335473556634944E-31, -1.000000000000000000, -1.217917285207545432E-16 ) ) ;
#95 = CC_DESIGN_PERSON_AND_ORGANIZATION_ASSIGNMENT ( #185, #197, ( #217 ) ) ;
#96 = FACE_OUTER_BOUND ( 'NONE', #205, .T. ) ;
#97 = AXIS2_PLACEMENT_3D ( 'NONE', #45, #167, #49 ) ;
#98 = CC_DESIGN_PERSON_AND_ORGANIZATION_ASSIGNMENT ( #124, #213, ( #217 ) ) ;
#99 = DIRECTION ( 'NONE',  ( -3.491481338843133355E-15, 1.224646799147353454E-16, -1.000000000000000000 ) ) ;
#100 = CIRCLE ( 'NONE', #84, 10.00000000000000000 ) ;
#101 = PLANE ( 'NONE',  #139 ) ;
#102 = DIRECTION ( 'NONE',  ( 0.0000000000000000000, 1.000000000000000000, 0.0000000000000000000 ) ) ;
#103 = CARTESIAN_POINT ( 'NONE',  ( 3.631140592396858689E-13, -1.273632671113247592E-14, 104.0000000000000000 ) ) ;
#104 = PRODUCT_DEFINITION_SHAPE ( 'NONE', 'NONE',  #12 ) ;
#105 = APPROVAL_ROLE ( '' ) ;
#106 = CARTESIAN_POINT ( 'NONE',  ( 6.982962677686191769E-16, -10.00000000000000000, 0.1999999999999978462 ) ) ;
#107 = AXIS2_PLACEMENT_3D ( 'NONE', #61, #99, #168 ) ;
#108 = VERTEX_POINT ( 'NONE', #30 ) ;
#109 = EDGE_CURVE ( 'NONE', #143, #143, #157, .T. ) ;
#110 = APPROVAL_DATE_TIME ( #214, #210 ) ;
#111 = COORDINATED_UNIVERSAL_TIME_OFFSET ( 1, 0, .AHEAD. ) ;
#112 = DIRECTION ( 'NONE',  ( -3.491481338843133355E-15, 1.224646799147353454E-16, -1.000000000000000000 ) ) ;
#113 = FACE_OUTER_BOUND ( 'NONE', #48, .T. ) ;
#114 = FACE_BOUND ( 'NONE', #183, .T. ) ;
#115 = AXIS2_PLACEMENT_3D ( 'NONE', #103, #18, #90 ) ;
#116 = CARTESIAN_POINT ( 'NONE',  ( 6.982962677686234170E-16, -2.435834570415079525E-17, 0.1999999999999990674 ) ) ;
#117 = ORIENTED_EDGE ( 'NONE', *, *, #109, .F. ) ;
#118 = APPROVAL_DATE_TIME ( #66, #134 ) ;
#119 = DATE_AND_TIME ( #51, #88 ) ;
#120 = VERTEX_POINT ( 'NONE', #4 ) ;
#121 = CARTESIAN_POINT ( 'NONE',  ( 1.396592535537253342E-13, 9.999999999999994671, 40.00000000000000000 ) ) ;
#122 = ORGANIZATION ( 'UNSPECIFIED', 'UNSPECIFIED', '' ) ;
#123 = SECURITY_CLASSIFICATION ( '', '', #24 ) ;
#124 = PERSON_AND_ORGANIZATION ( #163, #122 ) ;
#125 = ORIENTED_EDGE ( 'NONE', *, *, #34, .F. ) ;
#126 = CIRCLE ( 'NONE', #115, 9.000000000000000000 ) ;
#127 = EDGE_LOOP ( 'NONE', ( #117 ) ) ;
#128 = CARTESIAN_POINT ( 'NONE',  ( 3.631140592396858689E-13, 6.748919021978343909E-32, 104.0000000000000000 ) ) ;
#129 = ADVANCED_FACE ( 'NONE', ( #114, #132 ), #135, .T. ) ;
#130 = EDGE_LOOP ( 'NONE', ( #164 ) ) ;
#131 = CLOSED_SHELL ( 'NONE', ( #46, #31, #142, #57 ) ) ;
#132 = FACE_OUTER_BOUND ( 'NONE', #130, .T. ) ;
#133 = FACE_OUTER_BOUND ( 'NONE', #10, .T. ) ;
#134 = APPROVAL ( #195, 'UNSPECIFIED' ) ;
#135 = CONICAL_SURFACE ( 'NONE', #169, 10.00000000000000000, 0.7853981633974489451 ) ;
#136 = EDGE_LOOP ( 'NONE', ( #207 ) ) ;
#137 = CC_DESIGN_DATE_AND_TIME_ASSIGNMENT ( #119, #209, ( #12 ) ) ;
#138 = DIRECTION ( 'NONE',  ( 3.491481338843133355E-15, -1.217917285207545432E-16, 1.000000000000000000 ) ) ;
#139 = AXIS2_PLACEMENT_3D ( 'NONE', #203, #82, #60 ) ;
#140 = AXIS2_PLACEMENT_3D ( 'NONE', #79, #29, #102 ) ;
#141 = COORDINATED_UNIVERSAL_TIME_OFFSET ( 1, 0, .AHEAD. ) ;
#142 = ADVANCED_FACE ( 'NONE', ( #44, #113 ), #176, .T. ) ;
#143 = VERTEX_POINT ( 'NONE', #121 ) ;
#144 = ORIENTED_EDGE ( 'NONE', *, *, #211, .F. ) ;
#145 = ADVANCED_FACE ( 'NONE', ( #133 ), #101, .T. ) ;
#146 = FACE_OUTER_BOUND ( 'NONE', #171, .T. ) ;
#147 = APPLICATION_CONTEXT ( 'configuration controlled 3d designs of mechanical parts and assemblies' ) ;
#148 = ORIENTED_EDGE ( 'NONE', *, *, #154, .F. ) ;
#149 = FACE_OUTER_BOUND ( 'NONE', #173, .T. ) ;
#150 = ORIENTED_EDGE ( 'NONE', *, *, #109, .T. ) ;
#151 = DIRECTION ( 'NONE',  ( -3.491481338843133355E-15, 1.224646799147353454E-16, -1.000000000000000000 ) ) ;
#152 = FACE_OUTER_BOUND ( 'NONE', #221, .T. ) ;
#153 = CARTESIAN_POINT ( 'NONE',  ( 6.982962677686234170E-16, -2.435834570415079525E-17, 0.1999999999999990674 ) ) ;
#154 = EDGE_CURVE ( 'NONE', #68, #68, #199, .T. ) ;
#155 =( LENGTH_UNIT ( ) NAMED_UNIT ( * ) SI_UNIT ( .MILLI., .METRE. ) );
#156 = PERSON_AND_ORGANIZATION_ROLE ( 'design_owner' ) ;
#157 = CIRCLE ( 'NONE', #3, 10.00000000000000000 ) ;
#158 = DIRECTION ( 'NONE',  ( 0.0000000000000000000, 0.0000000000000000000, 1.000000000000000000 ) ) ;
#159 = COORDINATED_UNIVERSAL_TIME_OFFSET ( 1, 0, .AHEAD. ) ;
#160 = DIRECTION ( 'NONE',  ( 3.491481338843133355E-15, -1.217917285207545432E-16, 1.000000000000000000 ) ) ;
#161 = MANIFOLD_SOLID_BREP ( 'Corps-Déplacer/Copier1[1]', #131 ) ;
#162 = COORDINATED_UNIVERSAL_TIME_OFFSET ( 1, 0, .AHEAD. ) ;
#163 = PERSON ( 'UNSPECIFIED', 'UNSPECIFIED', 'UNSPECIFIED', ('UNSPECIFIED'), ('UNSPECIFIED'), ('UNSPECIFIED') ) ;
#164 = ORIENTED_EDGE ( 'NONE', *, *, #186, .F. ) ;
#165 = DATE_AND_TIME ( #180, #56 ) ;
#166 = PLANE ( 'NONE',  #52 ) ;
#167 = DIRECTION ( 'NONE',  ( -3.491481338843133355E-15, 1.224646799147353454E-16, -1.000000000000000000 ) ) ;
#168 = DIRECTION ( 'NONE',  ( 0.0000000000000000000, 1.000000000000000000, 0.0000000000000000000 ) ) ;
#169 = AXIS2_PLACEMENT_3D ( 'NONE', #153, #222, #13 ) ;
#170 = CARTESIAN_POINT ( 'NONE',  ( 1.396592535537253342E-13, -4.898587196589413815E-15, 40.00000000000000000 ) ) ;
#171 = EDGE_LOOP ( 'NONE', ( #148 ) ) ;
#172 = APPLICATION_CONTEXT ( 'configuration controlled 3d designs of mechanical parts and assemblies' ) ;
#173 = EDGE_LOOP ( 'NONE', ( #144 ) ) ;
#174 = VERTEX_POINT ( 'NONE', #17 ) ;
#175 = COORDINATED_UNIVERSAL_TIME_OFFSET ( 1, 0, .AHEAD. ) ;
#176 = CONICAL_SURFACE ( 'NONE', #107, 9.999999999999998224, 0.7853981633974543852 ) ;
#177 = MECHANICAL_CONTEXT ( 'NONE', #147, 'mechanical' ) ;
#178 = DIRECTION ( 'NONE',  ( -4.237045877651918877E-31, -1.000000000000000000, -1.219727444046192488E-16 ) ) ;
#179 = CC_DESIGN_PERSON_AND_ORGANIZATION_ASSIGNMENT ( #64, #208, ( #12 ) ) ;
#180 = CALENDAR_DATE ( 2021, 17, 11 ) ;
#181 = AXIS2_PLACEMENT_3D ( 'NONE', #26, #62, #191 ) ;
#182 = CC_DESIGN_APPROVAL ( #67, ( #217 ) ) ;
#183 = EDGE_LOOP ( 'NONE', ( #50 ) ) ;
#184 = UNCERTAINTY_MEASURE_WITH_UNIT (LENGTH_MEASURE( 1.000000000000000082E-05 ), #155, 'distance_accuracy_value', 'NONE');
#185 = PERSON_AND_ORGANIZATION ( #163, #122 ) ;
#186 = EDGE_CURVE ( 'NONE', #193, #193, #100, .T. ) ;
#187 = CARTESIAN_POINT ( 'NONE',  ( -4.167288764085502770E-30, 1.453656063335171267E-31, -1.193558939503394514E-15 ) ) ;
#188 = DIRECTION ( 'NONE',  ( 4.275831445896959482E-31, 1.000000000000000000, 1.224646799147353454E-16 ) ) ;
#189 = DIRECTION ( 'NONE',  ( -3.491481338843133355E-15, 1.224646799147353454E-16, -1.000000000000000000 ) ) ;
#190 = APPROVAL_PERSON_ORGANIZATION ( #65, #134, #1 ) ;
#191 = DIRECTION ( 'NONE',  ( -4.275831445896959482E-31, -1.000000000000000000, -1.224646799147353454E-16 ) ) ;
#192 = CIRCLE ( 'NONE', #39, 9.799999999999998934 ) ;
#193 = VERTEX_POINT ( 'NONE', #106 ) ;
#194 = CALENDAR_DATE ( 2021, 17, 11 ) ;
#195 = APPROVAL_STATUS ( 'not_yet_approved' ) ;
#196 = CC_DESIGN_PERSON_AND_ORGANIZATION_ASSIGNMENT ( #85, #156, ( #41 ) ) ;
#197 = PERSON_AND_ORGANIZATION_ROLE ( 'design_supplier' ) ;
#198 = ORIENTED_EDGE ( 'NONE', *, *, #154, .T. ) ;
#199 = CIRCLE ( 'NONE', #15, 10.00000000000000000 ) ;
#200 = APPROVAL_PERSON_ORGANIZATION ( #38, #210, #42 ) ;
#201 = CARTESIAN_POINT ( 'NONE',  ( 0.0000000000000000000, 0.0000000000000000000, 0.0000000000000000000 ) ) ;
#202 = CARTESIAN_POINT ( 'NONE',  ( 1.396592535537253342E-13, -4.898587196589413815E-15, 40.00000000000000000 ) ) ;
#203 = CARTESIAN_POINT ( 'NONE',  ( -2.137915722948479478E-30, 7.498798913309291323E-32, -6.123233995736767268E-16 ) ) ;
#204 = AXIS2_PLACEMENT_3D ( 'NONE', #201, #92, #7 ) ;
#205 = EDGE_LOOP ( 'NONE', ( #198 ) ) ;
#206 = PRODUCT_RELATED_PRODUCT_CATEGORY ( 'detail', '', ( #41 ) ) ;
#207 = ORIENTED_EDGE ( 'NONE', *, *, #91, .T. ) ;
#208 = PERSON_AND_ORGANIZATION_ROLE ( 'creator' ) ;
#209 = DATE_TIME_ROLE ( 'creation_date' ) ;
#210 = APPROVAL ( #78, 'UNSPECIFIED' ) ;
#211 = EDGE_CURVE ( 'NONE', #174, #174, #126, .T. ) ;
#212 = CALENDAR_DATE ( 2021, 17, 11 ) ;
#213 = PERSON_AND_ORGANIZATION_ROLE ( 'creator' ) ;
#214 = DATE_AND_TIME ( #75, #218 ) ;
#215 = DIRECTION ( 'NONE',  ( -4.275831445896959482E-31, -1.000000000000000000, -1.224646799147353454E-16 ) ) ;
#216 = ADVANCED_BREP_SHAPE_REPRESENTATION ( '37152', ( #161, #86, #76 ), #70 ) ;
#217 = PRODUCT_DEFINITION_FORMATION_WITH_SPECIFIED_SOURCE ( 'ANY', '', #41, .NOT_KNOWN. ) ;
#218 = LOCAL_TIME ( 11, 13, 22.00000000000000000, #111 ) ;
#219 = EDGE_LOOP ( 'NONE', ( #83 ) ) ;
#220 = PLANE ( 'NONE',  #9 ) ;
#221 = EDGE_LOOP ( 'NONE', ( #150 ) ) ;
#222 = DIRECTION ( 'NONE',  ( 3.491481338843133355E-15, -1.217917285207545432E-16, 1.000000000000000000 ) ) ;
#223 = APPROVAL_PERSON_ORGANIZATION ( #53, #67, #105 ) ;
ENDSEC;
END-ISO-10303-21;
