ISO-10303-21;
HEADER;
FILE_DESCRIPTION (( 'STEP AP203' ),
    '1' );
FILE_NAME ('37151.step',
    '2021-11-17T10:13:22',
    ( '' ),
    ( '' ),
    'SwSTEP 2.0',
    'SolidWorks 2019',
    '' );
FILE_SCHEMA (( 'CONFIG_CONTROL_DESIGN' ));
ENDSEC;

DATA;
#1 = LOCAL_TIME ( 11, 13, 22.00000000000000000, #25 ) ;
#2 = APPROVAL ( #13, 'UNSPECIFIED' ) ;
#3 = EDGE_LOOP ( 'NONE', ( #35 ) ) ;
#4 = PERSON_AND_ORGANIZATION_ROLE ( 'creator' ) ;
#5 = DIRECTION ( 'NONE',  ( -3.491481338843133355E-15, 1.224646799147353207E-16, -1.000000000000000000 ) ) ;
#6 = MANIFOLD_SOLID_BREP ( 'Corps-Déplacer/Copier1[2]', #143 ) ;
#7 = EDGE_LOOP ( 'NONE', ( #141 ) ) ;
#8 = DIRECTION ( 'NONE',  ( 0.0000000000000000000, 1.000000000000000000, 0.0000000000000000000 ) ) ;
#9 = DIRECTION ( 'NONE',  ( -3.491481338843133355E-15, 1.224646799147353207E-16, -1.000000000000000000 ) ) ;
#10 = CALENDAR_DATE ( 2021, 17, 11 ) ;
#11 = CC_DESIGN_PERSON_AND_ORGANIZATION_ASSIGNMENT ( #77, #218, ( #157 ) ) ;
#12 = DESIGN_CONTEXT ( 'detailed design', #113, 'design' ) ;
#13 = APPROVAL_STATUS ( 'not_yet_approved' ) ;
#14 = FACE_OUTER_BOUND ( 'NONE', #52, .T. ) ;
#15 =( NAMED_UNIT ( * ) PLANE_ANGLE_UNIT ( ) SI_UNIT ( $, .RADIAN. ) );
#16 = CC_DESIGN_SECURITY_CLASSIFICATION ( #122, ( #75 ) ) ;
#17 = EDGE_CURVE ( 'NONE', #154, #154, #68, .T. ) ;
#18 = EDGE_LOOP ( 'NONE', ( #200 ) ) ;
#19 = EDGE_LOOP ( 'NONE', ( #67 ) ) ;
#20 = CALENDAR_DATE ( 2021, 17, 11 ) ;
#21 = AXIS2_PLACEMENT_3D ( 'NONE', #205, #46, #114 ) ;
#22 = PERSON_AND_ORGANIZATION ( #156, #119 ) ;
#23 = DIRECTION ( 'NONE',  ( -3.491481338843133355E-15, 1.224646799147353207E-16, -1.000000000000000000 ) ) ;
#24 = CARTESIAN_POINT ( 'NONE',  ( 3.456566525454702148E-13, -1.212400331155879702E-14, 99.00000000000000000 ) ) ;
#25 = COORDINATED_UNIVERSAL_TIME_OFFSET ( 1, 0, .AHEAD. ) ;
#26 = COORDINATED_UNIVERSAL_TIME_OFFSET ( 1, 0, .AHEAD. ) ;
#27 = CARTESIAN_POINT ( 'NONE',  ( 1.256933281983528008E-13, 5.999039130647424958E-32, 36.00000000000000000 ) ) ;
#28 = EDGE_CURVE ( 'NONE', #57, #57, #201, .T. ) ;
#29 = APPROVAL_DATE_TIME ( #43, #94 ) ;
#30 = DIRECTION ( 'NONE',  ( 3.491481338843133355E-15, -1.224646799147353207E-16, 1.000000000000000000 ) ) ;
#31 = CALENDAR_DATE ( 2021, 17, 11 ) ;
#32 = CIRCLE ( 'NONE', #161, 7.799999999999998046 ) ;
#33 = CARTESIAN_POINT ( 'NONE',  ( 1.256933281983528008E-13, 7.999999999999996447, 36.00000000000000000 ) ) ;
#34 = DIRECTION ( 'NONE',  ( -4.252335473556634944E-31, -1.000000000000000000, -1.217917285207545679E-16 ) ) ;
#35 = ORIENTED_EDGE ( 'NONE', *, *, #86, .F. ) ;
#36 = DIRECTION ( 'NONE',  ( -3.491481338843133355E-15, 1.224646799147353207E-16, -1.000000000000000000 ) ) ;
#37 = CARTESIAN_POINT ( 'NONE',  ( 3.491481338843133355E-13, -1.224646799147353217E-14, 100.0000000000000000 ) ) ;
#38 = CC_DESIGN_PERSON_AND_ORGANIZATION_ASSIGNMENT ( #101, #187, ( #122 ) ) ;
#39 = DIRECTION ( 'NONE',  ( -4.275831445896958607E-31, -1.000000000000000000, -1.224646799147353207E-16 ) ) ;
#40 = CALENDAR_DATE ( 2021, 17, 11 ) ;
#41 = COORDINATED_UNIVERSAL_TIME_OFFSET ( 1, 0, .AHEAD. ) ;
#42 = AXIS2_PLACEMENT_3D ( 'NONE', #167, #51, #110 ) ;
#43 = DATE_AND_TIME ( #31, #193 ) ;
#44 = DIRECTION ( 'NONE',  ( -4.275831445896958607E-31, -1.000000000000000000, -1.224646799147353207E-16 ) ) ;
#45 = APPROVAL_ROLE ( '' ) ;
#46 = DIRECTION ( 'NONE',  ( -3.491481338843133355E-15, 1.224646799147353207E-16, -1.000000000000000000 ) ) ;
#47 = FACE_OUTER_BOUND ( 'NONE', #123, .T. ) ;
#48 = AXIS2_PLACEMENT_3D ( 'NONE', #27, #204, #44 ) ;
#49 = APPROVAL_PERSON_ORGANIZATION ( #22, #61, #185 ) ;
#50 = EDGE_LOOP ( 'NONE', ( #126 ) ) ;
#51 = DIRECTION ( 'NONE',  ( -3.491481338843133355E-15, 1.224646799147353207E-16, -1.000000000000000000 ) ) ;
#52 = EDGE_LOOP ( 'NONE', ( #106 ) ) ;
#53 = ADVANCED_FACE ( 'NONE', ( #120, #73 ), #93, .T. ) ;
#54 = ORIENTED_EDGE ( 'NONE', *, *, #102, .F. ) ;
#55 = CYLINDRICAL_SURFACE ( 'NONE', #177, 8.000000000000000000 ) ;
#56 = APPLICATION_PROTOCOL_DEFINITION ( 'international standard', 'config_control_design', 1994, #113 ) ;
#57 = VERTEX_POINT ( 'NONE', #175 ) ;
#58 = CIRCLE ( 'NONE', #191, 7.000000000000000888 ) ;
#59 = CALENDAR_DATE ( 2021, 17, 11 ) ;
#60 = APPROVAL_STATUS ( 'not_yet_approved' ) ;
#61 = APPROVAL ( #129, 'UNSPECIFIED' ) ;
#62 = CARTESIAN_POINT ( 'NONE',  ( -6.633643338748349461E-30, -7.799999999999998046, -1.899950964923770658E-15 ) ) ;
#63 = PERSON_AND_ORGANIZATION_ROLE ( 'design_supplier' ) ;
#64 = FACE_BOUND ( 'NONE', #19, .T. ) ;
#65 = PRODUCT_DEFINITION_SHAPE ( 'NONE', 'NONE',  #130 ) ;
#66 = ADVANCED_FACE ( 'NONE', ( #108, #70 ), #55, .T. ) ;
#67 = ORIENTED_EDGE ( 'NONE', *, *, #111, .T. ) ;
#68 = CIRCLE ( 'NONE', #109, 8.000000000000001776 ) ;
#69 = AXIS2_PLACEMENT_3D ( 'NONE', #144, #166, #215 ) ;
#70 = FACE_OUTER_BOUND ( 'NONE', #165, .T. ) ;
#71 = DIRECTION ( 'NONE',  ( 0.0000000000000000000, 1.000000000000000000, 0.0000000000000000000 ) ) ;
#72 = APPROVAL_DATE_TIME ( #131, #61 ) ;
#73 = FACE_OUTER_BOUND ( 'NONE', #199, .T. ) ;
#74 = AXIS2_PLACEMENT_3D ( 'NONE', #164, #5, #71 ) ;
#75 = PRODUCT_DEFINITION_FORMATION_WITH_SPECIFIED_SOURCE ( 'ANY', '', #157, .NOT_KNOWN. ) ;
#76 = FACE_OUTER_BOUND ( 'NONE', #159, .T. ) ;
#77 = PERSON_AND_ORGANIZATION ( #156, #119 ) ;
#78 = PLANE ( 'NONE',  #162 ) ;
#79 = MANIFOLD_SOLID_BREP ( 'Corps-Déplacer/Copier1[1]', #103 ) ;
#80 = COORDINATED_UNIVERSAL_TIME_OFFSET ( 1, 0, .AHEAD. ) ;
#81 = AXIS2_PLACEMENT_3D ( 'NONE', #190, #136, #174 ) ;
#82 = AXIS2_PLACEMENT_3D ( 'NONE', #84, #30, #39 ) ;
#83 = SHAPE_DEFINITION_REPRESENTATION ( #65, #194 ) ;
#84 = CARTESIAN_POINT ( 'NONE',  ( 1.256933281983528008E-13, 5.999039130647424958E-32, 36.00000000000000000 ) ) ;
#85 = EDGE_LOOP ( 'NONE', ( #104 ) ) ;
#86 = EDGE_CURVE ( 'NONE', #206, #206, #32, .T. ) ;
#87 = CARTESIAN_POINT ( 'NONE',  ( 6.982962677686242059E-16, -2.435834570415082606E-17, 0.1999999999999993172 ) ) ;
#88 = CIRCLE ( 'NONE', #118, 8.000000000000001776 ) ;
#89 = CC_DESIGN_APPROVAL ( #61, ( #130 ) ) ;
#90 = DATE_AND_TIME ( #20, #98 ) ;
#91 = CARTESIAN_POINT ( 'NONE',  ( -3.316821669374174731E-30, 1.156991560613707363E-31, -9.499754824618853288E-16 ) ) ;
#92 = DIRECTION ( 'NONE',  ( 0.0000000000000000000, 1.000000000000000000, 0.0000000000000000000 ) ) ;
#93 = CYLINDRICAL_SURFACE ( 'NONE', #42, 8.000000000000001776 ) ;
#94 = APPROVAL ( #60, 'UNSPECIFIED' ) ;
#95 =( GEOMETRIC_REPRESENTATION_CONTEXT ( 3 ) GLOBAL_UNCERTAINTY_ASSIGNED_CONTEXT ( ( #133 ) ) GLOBAL_UNIT_ASSIGNED_CONTEXT ( ( #155, #15, #184 ) ) REPRESENTATION_CONTEXT ( 'NONE', 'WORKASPACE' ) );
#96 = CC_DESIGN_DATE_AND_TIME_ASSIGNMENT ( #203, #97, ( #122 ) ) ;
#97 = DATE_TIME_ROLE ( 'classification_date' ) ;
#98 = LOCAL_TIME ( 11, 13, 22.00000000000000000, #220 ) ;
#99 = CARTESIAN_POINT ( 'NONE',  ( -1.710332578358783092E-30, 5.999039130647430431E-32, -4.898587196589412829E-16 ) ) ;
#100 = CARTESIAN_POINT ( 'NONE',  ( 3.456566525454702148E-13, 7.999999999999989342, 99.00000000000000000 ) ) ;
#101 = PERSON_AND_ORGANIZATION ( #156, #119 ) ;
#102 = EDGE_CURVE ( 'NONE', #192, #192, #171, .T. ) ;
#103 = CLOSED_SHELL ( 'NONE', ( #146, #53, #179, #189 ) ) ;
#104 = ORIENTED_EDGE ( 'NONE', *, *, #17, .T. ) ;
#105 = CC_DESIGN_PERSON_AND_ORGANIZATION_ASSIGNMENT ( #222, #63, ( #75 ) ) ;
#106 = ORIENTED_EDGE ( 'NONE', *, *, #111, .F. ) ;
#107 = APPLICATION_CONTEXT ( 'configuration controlled 3d designs of mechanical parts and assemblies' ) ;
#108 = FACE_OUTER_BOUND ( 'NONE', #7, .T. ) ;
#109 = AXIS2_PLACEMENT_3D ( 'NONE', #24, #36, #124 ) ;
#110 = DIRECTION ( 'NONE',  ( 4.275831445896958607E-31, 1.000000000000000000, 1.224646799147353207E-16 ) ) ;
#111 = EDGE_CURVE ( 'NONE', #116, #116, #58, .T. ) ;
#112 = CARTESIAN_POINT ( 'NONE',  ( 1.256933281983528008E-13, 7.999999999999996447, 36.00000000000000000 ) ) ;
#113 = APPLICATION_CONTEXT ( 'configuration controlled 3d designs of mechanical parts and assemblies' ) ;
#114 = DIRECTION ( 'NONE',  ( 4.275831445896958607E-31, 1.000000000000000000, 1.224646799147353207E-16 ) ) ;
#115 = PERSON_AND_ORGANIZATION ( #156, #119 ) ;
#116 = VERTEX_POINT ( 'NONE', #134 ) ;
#117 = PLANE ( 'NONE',  #21 ) ;
#118 = AXIS2_PLACEMENT_3D ( 'NONE', #142, #216, #8 ) ;
#119 = ORGANIZATION ( 'UNSPECIFIED', 'UNSPECIFIED', '' ) ;
#120 = FACE_OUTER_BOUND ( 'NONE', #85, .T. ) ;
#121 = EDGE_CURVE ( 'NONE', #188, #188, #88, .T. ) ;
#122 = SECURITY_CLASSIFICATION ( '', '', #153 ) ;
#123 = EDGE_LOOP ( 'NONE', ( #214 ) ) ;
#124 = DIRECTION ( 'NONE',  ( 0.0000000000000000000, 1.000000000000000000, 0.0000000000000000000 ) ) ;
#125 = PERSON_AND_ORGANIZATION ( #156, #119 ) ;
#126 = ORIENTED_EDGE ( 'NONE', *, *, #28, .F. ) ;
#127 = MECHANICAL_CONTEXT ( 'NONE', #107, 'mechanical' ) ;
#128 = PLANE ( 'NONE',  #82 ) ;
#129 = APPROVAL_STATUS ( 'not_yet_approved' ) ;
#130 = PRODUCT_DEFINITION ( 'UNKNOWN', '', #75, #12 ) ;
#131 = DATE_AND_TIME ( #10, #1 ) ;
#132 = DATE_AND_TIME ( #59, #181 ) ;
#133 = UNCERTAINTY_MEASURE_WITH_UNIT (LENGTH_MEASURE( 1.000000000000000082E-05 ), #155, 'distance_accuracy_value', 'NONE');
#134 = CARTESIAN_POINT ( 'NONE',  ( 3.491481338843133355E-13, 6.999999999999988454, 100.0000000000000000 ) ) ;
#135 = CC_DESIGN_APPROVAL ( #2, ( #122 ) ) ;
#136 = DIRECTION ( 'NONE',  ( 3.491481338843133355E-15, -1.217917285207545432E-16, 1.000000000000000000 ) ) ;
#137 = DIRECTION ( 'NONE',  ( 0.0000000000000000000, 1.000000000000000000, 0.0000000000000000000 ) ) ;
#138 = CC_DESIGN_PERSON_AND_ORGANIZATION_ASSIGNMENT ( #115, #152, ( #75 ) ) ;
#139 = AXIS2_PLACEMENT_3D ( 'NONE', #147, #9, #137 ) ;
#140 = DIRECTION ( 'NONE',  ( -4.212971753347078429E-31, -1.000000000000000000, -1.219727444046192488E-16 ) ) ;
#141 = ORIENTED_EDGE ( 'NONE', *, *, #121, .T. ) ;
#142 = CARTESIAN_POINT ( 'NONE',  ( 1.256933281983528008E-13, -4.408728476930470856E-15, 36.00000000000000000 ) ) ;
#143 = CLOSED_SHELL ( 'NONE', ( #66, #173, #168, #209 ) ) ;
#144 = CARTESIAN_POINT ( 'NONE',  ( 0.0000000000000000000, 0.0000000000000000000, 0.0000000000000000000 ) ) ;
#145 = APPLICATION_PROTOCOL_DEFINITION ( 'international standard', 'config_control_design', 1994, #107 ) ;
#146 = ADVANCED_FACE ( 'NONE', ( #76 ), #219, .F. ) ;
#147 = CARTESIAN_POINT ( 'NONE',  ( 3.456566525454702148E-13, -1.212400331155879702E-14, 99.00000000000000000 ) ) ;
#148 = PERSON_AND_ORGANIZATION ( #156, #119 ) ;
#149 = APPROVAL_ROLE ( '' ) ;
#150 = AXIS2_PLACEMENT_3D ( 'NONE', #87, #160, #140 ) ;
#151 = LOCAL_TIME ( 11, 13, 22.00000000000000000, #26 ) ;
#152 = PERSON_AND_ORGANIZATION_ROLE ( 'creator' ) ;
#153 = SECURITY_CLASSIFICATION_LEVEL ( 'unclassified' ) ;
#154 = VERTEX_POINT ( 'NONE', #100 ) ;
#155 =( LENGTH_UNIT ( ) NAMED_UNIT ( * ) SI_UNIT ( .MILLI., .METRE. ) );
#156 = PERSON ( 'UNSPECIFIED', 'UNSPECIFIED', 'UNSPECIFIED', ('UNSPECIFIED'), ('UNSPECIFIED'), ('UNSPECIFIED') ) ;
#157 = PRODUCT ( '37151', '37151', '', ( #127 ) ) ;
#158 = FACE_OUTER_BOUND ( 'NONE', #3, .T. ) ;
#159 = EDGE_LOOP ( 'NONE', ( #210 ) ) ;
#160 = DIRECTION ( 'NONE',  ( 3.491481338843133355E-15, -1.217917285207545432E-16, 1.000000000000000000 ) ) ;
#161 = AXIS2_PLACEMENT_3D ( 'NONE', #91, #182, #34 ) ;
#162 = AXIS2_PLACEMENT_3D ( 'NONE', #99, #223, #217 ) ;
#163 = DATE_TIME_ROLE ( 'creation_date' ) ;
#164 = CARTESIAN_POINT ( 'NONE',  ( 1.256933281983528008E-13, -4.408728476930470856E-15, 36.00000000000000000 ) ) ;
#165 = EDGE_LOOP ( 'NONE', ( #211 ) ) ;
#166 = DIRECTION ( 'NONE',  ( 0.0000000000000000000, 0.0000000000000000000, 1.000000000000000000 ) ) ;
#167 = CARTESIAN_POINT ( 'NONE',  ( 0.0000000000000000000, 0.0000000000000000000, 0.0000000000000000000 ) ) ;
#168 = ADVANCED_FACE ( 'NONE', ( #169, #186 ), #207, .T. ) ;
#169 = FACE_BOUND ( 'NONE', #18, .T. ) ;
#170 = PERSON_AND_ORGANIZATION ( #156, #119 ) ;
#171 = CIRCLE ( 'NONE', #74, 8.000000000000001776 ) ;
#172 = APPROVAL_DATE_TIME ( #132, #2 ) ;
#173 = ADVANCED_FACE ( 'NONE', ( #47 ), #128, .T. ) ;
#174 = DIRECTION ( 'NONE',  ( -4.212971753347078429E-31, -1.000000000000000000, -1.219727444046192488E-16 ) ) ;
#175 = CARTESIAN_POINT ( 'NONE',  ( 6.982962677686208532E-16, -8.000000000000000000, 0.1999999999999983180 ) ) ;
#176 = FACE_OUTER_BOUND ( 'NONE', #183, .T. ) ;
#177 = AXIS2_PLACEMENT_3D ( 'NONE', #197, #213, #180 ) ;
#178 = ORIENTED_EDGE ( 'NONE', *, *, #17, .F. ) ;
#179 = ADVANCED_FACE ( 'NONE', ( #64, #176 ), #221, .T. ) ;
#180 = DIRECTION ( 'NONE',  ( 4.275831445896958607E-31, 1.000000000000000000, 1.224646799147353207E-16 ) ) ;
#181 = LOCAL_TIME ( 11, 13, 22.00000000000000000, #41 ) ;
#182 = DIRECTION ( 'NONE',  ( 3.491481338843133355E-15, -1.217917285207545432E-16, 1.000000000000000000 ) ) ;
#183 = EDGE_LOOP ( 'NONE', ( #178 ) ) ;
#184 =( NAMED_UNIT ( * ) SI_UNIT ( $, .STERADIAN. ) SOLID_ANGLE_UNIT ( ) );
#185 = APPROVAL_ROLE ( '' ) ;
#186 = FACE_OUTER_BOUND ( 'NONE', #50, .T. ) ;
#187 = PERSON_AND_ORGANIZATION_ROLE ( 'classification_officer' ) ;
#188 = VERTEX_POINT ( 'NONE', #112 ) ;
#189 = ADVANCED_FACE ( 'NONE', ( #14 ), #117, .F. ) ;
#190 = CARTESIAN_POINT ( 'NONE',  ( 6.982962677686242059E-16, -2.435834570415082606E-17, 0.1999999999999993172 ) ) ;
#191 = AXIS2_PLACEMENT_3D ( 'NONE', #37, #23, #92 ) ;
#192 = VERTEX_POINT ( 'NONE', #33 ) ;
#193 = LOCAL_TIME ( 11, 13, 22.00000000000000000, #80 ) ;
#194 = ADVANCED_BREP_SHAPE_REPRESENTATION ( '37151', ( #79, #6, #69 ), #95 ) ;
#195 = CC_DESIGN_PERSON_AND_ORGANIZATION_ASSIGNMENT ( #148, #4, ( #130 ) ) ;
#196 = APPROVAL_PERSON_ORGANIZATION ( #170, #2, #149 ) ;
#197 = CARTESIAN_POINT ( 'NONE',  ( 0.0000000000000000000, 0.0000000000000000000, 0.0000000000000000000 ) ) ;
#198 = PRODUCT_RELATED_PRODUCT_CATEGORY ( 'detail', '', ( #157 ) ) ;
#199 = EDGE_LOOP ( 'NONE', ( #54 ) ) ;
#200 = ORIENTED_EDGE ( 'NONE', *, *, #86, .T. ) ;
#201 = CIRCLE ( 'NONE', #150, 8.000000000000000000 ) ;
#202 = CC_DESIGN_APPROVAL ( #94, ( #75 ) ) ;
#203 = DATE_AND_TIME ( #40, #151 ) ;
#204 = DIRECTION ( 'NONE',  ( 3.491481338843133355E-15, -1.224646799147353207E-16, 1.000000000000000000 ) ) ;
#205 = CARTESIAN_POINT ( 'NONE',  ( 3.491481338843133355E-13, 5.249159239316484111E-32, 100.0000000000000000 ) ) ;
#206 = VERTEX_POINT ( 'NONE', #62 ) ;
#207 = CONICAL_SURFACE ( 'NONE', #81, 8.000000000000000000, 0.7853981633974532750 ) ;
#208 = APPROVAL_PERSON_ORGANIZATION ( #125, #94, #45 ) ;
#209 = ADVANCED_FACE ( 'NONE', ( #158 ), #78, .T. ) ;
#210 = ORIENTED_EDGE ( 'NONE', *, *, #102, .T. ) ;
#211 = ORIENTED_EDGE ( 'NONE', *, *, #28, .T. ) ;
#212 = CC_DESIGN_DATE_AND_TIME_ASSIGNMENT ( #90, #163, ( #130 ) ) ;
#213 = DIRECTION ( 'NONE',  ( -3.491481338843133355E-15, 1.224646799147353207E-16, -1.000000000000000000 ) ) ;
#214 = ORIENTED_EDGE ( 'NONE', *, *, #121, .F. ) ;
#215 = DIRECTION ( 'NONE',  ( 1.000000000000000000, 0.0000000000000000000, 0.0000000000000000000 ) ) ;
#216 = DIRECTION ( 'NONE',  ( -3.491481338843133355E-15, 1.224646799147353207E-16, -1.000000000000000000 ) ) ;
#217 = DIRECTION ( 'NONE',  ( 4.275831445896958607E-31, 1.000000000000000000, 1.224646799147353207E-16 ) ) ;
#218 = PERSON_AND_ORGANIZATION_ROLE ( 'design_owner' ) ;
#219 = PLANE ( 'NONE',  #48 ) ;
#220 = COORDINATED_UNIVERSAL_TIME_OFFSET ( 1, 0, .AHEAD. ) ;
#221 = CONICAL_SURFACE ( 'NONE', #139, 8.000000000000001776, 0.7853981633974482790 ) ;
#222 = PERSON_AND_ORGANIZATION ( #156, #119 ) ;
#223 = DIRECTION ( 'NONE',  ( -3.491481338843133355E-15, 1.224646799147353207E-16, -1.000000000000000000 ) ) ;
ENDSEC;
END-ISO-10303-21;
