ISO-10303-21;
HEADER;
FILE_DESCRIPTION (( 'STEP AP203' ),
    '1' );
FILE_NAME ('37148.step',
    '2021-11-17T10:13:21',
    ( '' ),
    ( '' ),
    'SwSTEP 2.0',
    'SolidWorks 2019',
    '' );
FILE_SCHEMA (( 'CONFIG_CONTROL_DESIGN' ));
ENDSEC;

DATA;
#1 = CARTESIAN_POINT ( 'NONE',  ( 6.982962677686246989E-16, -2.435834570415083839E-17, 0.1999999999999994282 ) ) ;
#2 = LOCAL_TIME ( 11, 13, 21.00000000000000000, #100 ) ;
#3 = EDGE_LOOP ( 'NONE', ( #106 ) ) ;
#4 = CARTESIAN_POINT ( 'NONE',  ( 8.728703347107833388E-14, -3.061616997868383043E-15, 25.00000000000000000 ) ) ;
#5 = CARTESIAN_POINT ( 'NONE',  ( 8.728703347107833388E-14, 5.999999999999996447, 25.00000000000000000 ) ) ;
#6 = AXIS2_PLACEMENT_3D ( 'NONE', #84, #90, #186 ) ;
#7 = CARTESIAN_POINT ( 'NONE',  ( 6.982962677686222337E-16, -6.000000000000000000, 0.1999999999999987066 ) ) ;
#8 = DIRECTION ( 'NONE',  ( -4.252335473556634944E-31, -1.000000000000000000, -1.217917285207545432E-16 ) ) ;
#9 = FACE_OUTER_BOUND ( 'NONE', #117, .T. ) ;
#10 =( LENGTH_UNIT ( ) NAMED_UNIT ( * ) SI_UNIT ( .MILLI., .METRE. ) );
#11 = DATE_AND_TIME ( #162, #2 ) ;
#12 = APPROVAL_DATE_TIME ( #45, #188 ) ;
#13 = PERSON_AND_ORGANIZATION ( #78, #215 ) ;
#14 = APPROVAL_STATUS ( 'not_yet_approved' ) ;
#15 = CALENDAR_DATE ( 2021, 17, 11 ) ;
#16 = COORDINATED_UNIVERSAL_TIME_OFFSET ( 1, 0, .AHEAD. ) ;
#17 = DIRECTION ( 'NONE',  ( 0.0000000000000000000, 1.000000000000000000, 0.0000000000000000000 ) ) ;
#18 = DIRECTION ( 'NONE',  ( -3.491481338843133355E-15, 1.224646799147353207E-16, -1.000000000000000000 ) ) ;
#19 = PLANE ( 'NONE',  #71 ) ;
#20 = AXIS2_PLACEMENT_3D ( 'NONE', #93, #156, #92 ) ;
#21 = FACE_OUTER_BOUND ( 'NONE', #118, .T. ) ;
#22 = CARTESIAN_POINT ( 'NONE',  ( -4.932709149325696185E-30, -5.799999999999999822, -1.412784050840752682E-15 ) ) ;
#23 = APPLICATION_CONTEXT ( 'configuration controlled 3d designs of mechanical parts and assemblies' ) ;
#24 = DIRECTION ( 'NONE',  ( 0.0000000000000000000, 1.000000000000000000, 0.0000000000000000000 ) ) ;
#25 = AXIS2_PLACEMENT_3D ( 'NONE', #36, #135, #37 ) ;
#26 = VERTEX_POINT ( 'NONE', #39 ) ;
#27 = ADVANCED_FACE ( 'NONE', ( #206, #204 ), #147, .T. ) ;
#28 = CLOSED_SHELL ( 'NONE', ( #129, #63, #96, #86 ) ) ;
#29 = PERSON_AND_ORGANIZATION_ROLE ( 'creator' ) ;
#30 = APPROVAL_PERSON_ORGANIZATION ( #13, #188, #199 ) ;
#31 = CALENDAR_DATE ( 2021, 17, 11 ) ;
#32 = PERSON_AND_ORGANIZATION ( #78, #215 ) ;
#33 = CIRCLE ( 'NONE', #155, 6.000000000000000888 ) ;
#34 = DIRECTION ( 'NONE',  ( -3.491481338843133355E-15, 1.224646799147353207E-16, -1.000000000000000000 ) ) ;
#35 = DIRECTION ( 'NONE',  ( -3.491481338843133355E-15, 1.224646799147353207E-16, -1.000000000000000000 ) ) ;
#36 = CARTESIAN_POINT ( 'NONE',  ( 2.897929511239800811E-13, -1.016456843292303150E-14, 83.00000000000000000 ) ) ;
#37 = DIRECTION ( 'NONE',  ( 0.0000000000000000000, 1.000000000000000000, 0.0000000000000000000 ) ) ;
#38 = EDGE_CURVE ( 'NONE', #121, #121, #194, .T. ) ;
#39 = CARTESIAN_POINT ( 'NONE',  ( 8.728703347107833388E-14, 5.999999999999996447, 25.00000000000000000 ) ) ;
#40 = AXIS2_PLACEMENT_3D ( 'NONE', #104, #18, #87 ) ;
#41 = CARTESIAN_POINT ( 'NONE',  ( -2.466354574662848092E-30, 8.603270578922441165E-32, -7.063920254203763409E-16 ) ) ;
#42 = PLANE ( 'NONE',  #56 ) ;
#43 =( NAMED_UNIT ( * ) SI_UNIT ( $, .STERADIAN. ) SOLID_ANGLE_UNIT ( ) );
#44 = APPROVAL_ROLE ( '' ) ;
#45 = DATE_AND_TIME ( #166, #151 ) ;
#46 = DATE_TIME_ROLE ( 'creation_date' ) ;
#47 = CIRCLE ( 'NONE', #132, 6.000000000000000000 ) ;
#48 = COORDINATED_UNIVERSAL_TIME_OFFSET ( 1, 0, .AHEAD. ) ;
#49 = EDGE_CURVE ( 'NONE', #139, #139, #47, .T. ) ;
#50 = PLANE ( 'NONE',  #52 ) ;
#51 = SHAPE_DEFINITION_REPRESENTATION ( #143, #176 ) ;
#52 = AXIS2_PLACEMENT_3D ( 'NONE', #183, #131, #202 ) ;
#53 = FACE_BOUND ( 'NONE', #149, .T. ) ;
#54 = PLANE ( 'NONE',  #20 ) ;
#55 = EDGE_LOOP ( 'NONE', ( #168 ) ) ;
#56 = AXIS2_PLACEMENT_3D ( 'NONE', #108, #123, #59 ) ;
#57 = ORIENTED_EDGE ( 'NONE', *, *, #154, .T. ) ;
#58 = ADVANCED_FACE ( 'NONE', ( #167 ), #19, .T. ) ;
#59 = DIRECTION ( 'NONE',  ( 4.275831445896958607E-31, 1.000000000000000000, 1.224646799147353207E-16 ) ) ;
#60 = FACE_OUTER_BOUND ( 'NONE', #3, .T. ) ;
#61 = CARTESIAN_POINT ( 'NONE',  ( 0.0000000000000000000, 0.0000000000000000000, 0.0000000000000000000 ) ) ;
#62 = CIRCLE ( 'NONE', #173, 6.000000000000000000 ) ;
#63 = ADVANCED_FACE ( 'NONE', ( #21, #152 ), #119, .T. ) ;
#64 = MECHANICAL_CONTEXT ( 'NONE', #23, 'mechanical' ) ;
#65 = PERSON_AND_ORGANIZATION ( #78, #215 ) ;
#66 = ORIENTED_EDGE ( 'NONE', *, *, #103, .F. ) ;
#67 = DIRECTION ( 'NONE',  ( 3.491481338843133355E-15, -1.217917285207545432E-16, 1.000000000000000000 ) ) ;
#68 = PRODUCT_DEFINITION ( 'UNKNOWN', '', #161, #213 ) ;
#69 = ORIENTED_EDGE ( 'NONE', *, *, #38, .T. ) ;
#70 = ORIENTED_EDGE ( 'NONE', *, *, #38, .F. ) ;
#71 = AXIS2_PLACEMENT_3D ( 'NONE', #113, #130, #89 ) ;
#72 = VERTEX_POINT ( 'NONE', #22 ) ;
#73 = CYLINDRICAL_SURFACE ( 'NONE', #80, 6.000000000000000000 ) ;
#74 = CARTESIAN_POINT ( 'NONE',  ( 2.897929511239800811E-13, 5.499999999999989342, 83.00000000000000000 ) ) ;
#75 = DIRECTION ( 'NONE',  ( 0.0000000000000000000, 1.000000000000000000, 0.0000000000000000000 ) ) ;
#76 = AXIS2_PLACEMENT_3D ( 'NONE', #221, #35, #85 ) ;
#77 =( GEOMETRIC_REPRESENTATION_CONTEXT ( 3 ) GLOBAL_UNCERTAINTY_ASSIGNED_CONTEXT ( ( #196 ) ) GLOBAL_UNIT_ASSIGNED_CONTEXT ( ( #10, #192, #43 ) ) REPRESENTATION_CONTEXT ( 'NONE', 'WORKASPACE' ) );
#78 = PERSON ( 'UNSPECIFIED', 'UNSPECIFIED', 'UNSPECIFIED', ('UNSPECIFIED'), ('UNSPECIFIED'), ('UNSPECIFIED') ) ;
#79 = CC_DESIGN_PERSON_AND_ORGANIZATION_ASSIGNMENT ( #65, #29, ( #68 ) ) ;
#80 = AXIS2_PLACEMENT_3D ( 'NONE', #138, #209, #190 ) ;
#81 = PERSON_AND_ORGANIZATION_ROLE ( 'design_supplier' ) ;
#82 = APPROVAL_STATUS ( 'not_yet_approved' ) ;
#83 = SECURITY_CLASSIFICATION_LEVEL ( 'unclassified' ) ;
#84 = CARTESIAN_POINT ( 'NONE',  ( 6.982962677686246989E-16, -2.435834570415083839E-17, 0.1999999999999994282 ) ) ;
#85 = DIRECTION ( 'NONE',  ( 4.275831445896959482E-31, 1.000000000000000000, 1.224646799147353207E-16 ) ) ;
#86 = ADVANCED_FACE ( 'NONE', ( #201 ), #50, .F. ) ;
#87 = DIRECTION ( 'NONE',  ( 0.0000000000000000000, 1.000000000000000000, 0.0000000000000000000 ) ) ;
#88 = CC_DESIGN_APPROVAL ( #188, ( #177 ) ) ;
#89 = DIRECTION ( 'NONE',  ( -4.275831445896958607E-31, -1.000000000000000000, -1.224646799147353207E-16 ) ) ;
#90 = DIRECTION ( 'NONE',  ( 3.491481338843133355E-15, -1.217917285207545432E-16, 1.000000000000000000 ) ) ;
#91 = FACE_OUTER_BOUND ( 'NONE', #148, .T. ) ;
#92 = DIRECTION ( 'NONE',  ( -4.275831445896958607E-31, -1.000000000000000000, -1.224646799147353207E-16 ) ) ;
#93 = CARTESIAN_POINT ( 'NONE',  ( 8.728703347107833388E-14, 4.499279347985567350E-32, 25.00000000000000000 ) ) ;
#94 = AXIS2_PLACEMENT_3D ( 'NONE', #61, #95, #180 ) ;
#95 = DIRECTION ( 'NONE',  ( 0.0000000000000000000, 0.0000000000000000000, 1.000000000000000000 ) ) ;
#96 = ADVANCED_FACE ( 'NONE', ( #53, #184 ), #124, .T. ) ;
#97 = DATE_AND_TIME ( #31, #120 ) ;
#98 = COORDINATED_UNIVERSAL_TIME_OFFSET ( 1, 0, .AHEAD. ) ;
#99 = PERSON_AND_ORGANIZATION_ROLE ( 'classification_officer' ) ;
#100 = COORDINATED_UNIVERSAL_TIME_OFFSET ( 1, 0, .AHEAD. ) ;
#101 = DATE_AND_TIME ( #15, #158 ) ;
#102 = EDGE_LOOP ( 'NONE', ( #185 ) ) ;
#103 = EDGE_CURVE ( 'NONE', #210, #210, #165, .T. ) ;
#104 = CARTESIAN_POINT ( 'NONE',  ( 2.880472104545584703E-13, -1.010333609296566392E-14, 82.50000000000000000 ) ) ;
#105 = EDGE_LOOP ( 'NONE', ( #223 ) ) ;
#106 = ORIENTED_EDGE ( 'NONE', *, *, #214, .F. ) ;
#107 = CIRCLE ( 'NONE', #140, 5.799999999999999822 ) ;
#108 = CARTESIAN_POINT ( 'NONE',  ( -1.282749433769087757E-30, 4.499279347985572824E-32, -3.673940397442059868E-16 ) ) ;
#109 = DIRECTION ( 'NONE',  ( 3.491481338843133355E-15, -1.217917285207545432E-16, 1.000000000000000000 ) ) ;
#110 = CC_DESIGN_APPROVAL ( #146, ( #68 ) ) ;
#111 = PERSON_AND_ORGANIZATION ( #78, #215 ) ;
#112 = APPROVAL_DATE_TIME ( #219, #146 ) ;
#113 = CARTESIAN_POINT ( 'NONE',  ( 8.728703347107833388E-14, 4.499279347985567350E-32, 25.00000000000000000 ) ) ;
#114 = CC_DESIGN_PERSON_AND_ORGANIZATION_ASSIGNMENT ( #164, #200, ( #161 ) ) ;
#115 = APPROVAL_PERSON_ORGANIZATION ( #197, #146, #44 ) ;
#116 = EDGE_LOOP ( 'NONE', ( #70 ) ) ;
#117 = EDGE_LOOP ( 'NONE', ( #57 ) ) ;
#118 = EDGE_LOOP ( 'NONE', ( #189 ) ) ;
#119 = CYLINDRICAL_SURFACE ( 'NONE', #76, 6.000000000000000000 ) ;
#120 = LOCAL_TIME ( 11, 13, 21.00000000000000000, #98 ) ;
#121 = VERTEX_POINT ( 'NONE', #74 ) ;
#122 = PRODUCT_RELATED_PRODUCT_CATEGORY ( 'detail', '', ( #187 ) ) ;
#123 = DIRECTION ( 'NONE',  ( -3.491481338843133355E-15, 1.224646799147353207E-16, -1.000000000000000000 ) ) ;
#124 = CONICAL_SURFACE ( 'NONE', #40, 6.000000000000000888, 0.7853981633974491672 ) ;
#125 = DATE_TIME_ROLE ( 'classification_date' ) ;
#126 = APPLICATION_PROTOCOL_DEFINITION ( 'international standard', 'config_control_design', 1994, #175 ) ;
#127 = CC_DESIGN_SECURITY_CLASSIFICATION ( #177, ( #161 ) ) ;
#128 = MANIFOLD_SOLID_BREP ( 'Corps-Déplacer/Copier1[2]', #145 ) ;
#129 = ADVANCED_FACE ( 'NONE', ( #203 ), #54, .F. ) ;
#130 = DIRECTION ( 'NONE',  ( 3.491481338843133355E-15, -1.224646799147353207E-16, 1.000000000000000000 ) ) ;
#131 = DIRECTION ( 'NONE',  ( -3.491481338843133355E-15, 1.224646799147353207E-16, -1.000000000000000000 ) ) ;
#132 = AXIS2_PLACEMENT_3D ( 'NONE', #4, #34, #17 ) ;
#133 = DIRECTION ( 'NONE',  ( -4.172848212839010723E-31, -1.000000000000000000, -1.219727444046192488E-16 ) ) ;
#134 = ORIENTED_EDGE ( 'NONE', *, *, #142, .F. ) ;
#135 = DIRECTION ( 'NONE',  ( -3.491481338843133355E-15, 1.224646799147353207E-16, -1.000000000000000000 ) ) ;
#136 = LOCAL_TIME ( 11, 13, 21.00000000000000000, #48 ) ;
#137 = APPROVAL ( #82, 'UNSPECIFIED' ) ;
#138 = CARTESIAN_POINT ( 'NONE',  ( 0.0000000000000000000, 0.0000000000000000000, 0.0000000000000000000 ) ) ;
#139 = VERTEX_POINT ( 'NONE', #5 ) ;
#140 = AXIS2_PLACEMENT_3D ( 'NONE', #41, #109, #8 ) ;
#141 = DIRECTION ( 'NONE',  ( -3.491481338843133355E-15, 1.224646799147353207E-16, -1.000000000000000000 ) ) ;
#142 = EDGE_CURVE ( 'NONE', #174, #174, #33, .T. ) ;
#143 = PRODUCT_DEFINITION_SHAPE ( 'NONE', 'NONE',  #68 ) ;
#144 = PERSON_AND_ORGANIZATION_ROLE ( 'design_owner' ) ;
#145 = CLOSED_SHELL ( 'NONE', ( #195, #58, #27, #205 ) ) ;
#146 = APPROVAL ( #14, 'UNSPECIFIED' ) ;
#147 = CONICAL_SURFACE ( 'NONE', #6, 6.000000000000000000, 0.7853981633974492782 ) ;
#148 = EDGE_LOOP ( 'NONE', ( #170 ) ) ;
#149 = EDGE_LOOP ( 'NONE', ( #69 ) ) ;
#150 = EDGE_LOOP ( 'NONE', ( #171 ) ) ;
#151 = LOCAL_TIME ( 11, 13, 21.00000000000000000, #182 ) ;
#152 = FACE_OUTER_BOUND ( 'NONE', #105, .T. ) ;
#153 = EDGE_LOOP ( 'NONE', ( #134 ) ) ;
#154 = EDGE_CURVE ( 'NONE', #26, #26, #62, .T. ) ;
#155 = AXIS2_PLACEMENT_3D ( 'NONE', #212, #193, #75 ) ;
#156 = DIRECTION ( 'NONE',  ( 3.491481338843133355E-15, -1.224646799147353207E-16, 1.000000000000000000 ) ) ;
#157 = CARTESIAN_POINT ( 'NONE',  ( 8.728703347107833388E-14, -3.061616997868383043E-15, 25.00000000000000000 ) ) ;
#158 = LOCAL_TIME ( 11, 13, 21.00000000000000000, #16 ) ;
#159 = CARTESIAN_POINT ( 'NONE',  ( 2.880472104545584703E-13, 5.999999999999990230, 82.50000000000000000 ) ) ;
#160 = APPROVAL_ROLE ( '' ) ;
#161 = PRODUCT_DEFINITION_FORMATION_WITH_SPECIFIED_SOURCE ( 'ANY', '', #187, .NOT_KNOWN. ) ;
#162 = CALENDAR_DATE ( 2021, 17, 11 ) ;
#163 = CC_DESIGN_PERSON_AND_ORGANIZATION_ASSIGNMENT ( #111, #144, ( #187 ) ) ;
#164 = PERSON_AND_ORGANIZATION ( #78, #215 ) ;
#165 = CIRCLE ( 'NONE', #198, 6.000000000000000000 ) ;
#166 = CALENDAR_DATE ( 2021, 17, 11 ) ;
#167 = FACE_OUTER_BOUND ( 'NONE', #102, .T. ) ;
#168 = ORIENTED_EDGE ( 'NONE', *, *, #214, .T. ) ;
#169 = EDGE_LOOP ( 'NONE', ( #66 ) ) ;
#170 = ORIENTED_EDGE ( 'NONE', *, *, #103, .T. ) ;
#171 = ORIENTED_EDGE ( 'NONE', *, *, #49, .T. ) ;
#172 = CC_DESIGN_PERSON_AND_ORGANIZATION_ASSIGNMENT ( #181, #99, ( #177 ) ) ;
#173 = AXIS2_PLACEMENT_3D ( 'NONE', #157, #141, #24 ) ;
#174 = VERTEX_POINT ( 'NONE', #159 ) ;
#175 = APPLICATION_CONTEXT ( 'configuration controlled 3d designs of mechanical parts and assemblies' ) ;
#176 = ADVANCED_BREP_SHAPE_REPRESENTATION ( '37148', ( #208, #128, #94 ), #77 ) ;
#177 = SECURITY_CLASSIFICATION ( '', '', #83 ) ;
#178 = CALENDAR_DATE ( 2021, 17, 11 ) ;
#179 = CC_DESIGN_PERSON_AND_ORGANIZATION_ASSIGNMENT ( #217, #81, ( #161 ) ) ;
#180 = DIRECTION ( 'NONE',  ( 1.000000000000000000, 0.0000000000000000000, 0.0000000000000000000 ) ) ;
#181 = PERSON_AND_ORGANIZATION ( #78, #215 ) ;
#182 = COORDINATED_UNIVERSAL_TIME_OFFSET ( 1, 0, .AHEAD. ) ;
#183 = CARTESIAN_POINT ( 'NONE',  ( 2.897929511239800811E-13, 4.124339402320093095E-32, 83.00000000000000000 ) ) ;
#184 = FACE_OUTER_BOUND ( 'NONE', #153, .T. ) ;
#185 = ORIENTED_EDGE ( 'NONE', *, *, #154, .F. ) ;
#186 = DIRECTION ( 'NONE',  ( -4.172848212839010723E-31, -1.000000000000000000, -1.219727444046192488E-16 ) ) ;
#187 = PRODUCT ( '37148', '37148', '', ( #64 ) ) ;
#188 = APPROVAL ( #218, 'UNSPECIFIED' ) ;
#189 = ORIENTED_EDGE ( 'NONE', *, *, #142, .T. ) ;
#190 = DIRECTION ( 'NONE',  ( 4.275831445896959482E-31, 1.000000000000000000, 1.224646799147353207E-16 ) ) ;
#191 = APPROVAL_PERSON_ORGANIZATION ( #32, #137, #160 ) ;
#192 =( NAMED_UNIT ( * ) PLANE_ANGLE_UNIT ( ) SI_UNIT ( $, .RADIAN. ) );
#193 = DIRECTION ( 'NONE',  ( -3.491481338843133355E-15, 1.224646799147353207E-16, -1.000000000000000000 ) ) ;
#194 = CIRCLE ( 'NONE', #25, 5.500000000000000000 ) ;
#195 = ADVANCED_FACE ( 'NONE', ( #9, #91 ), #73, .T. ) ;
#196 = UNCERTAINTY_MEASURE_WITH_UNIT (LENGTH_MEASURE( 1.000000000000000082E-05 ), #10, 'distance_accuracy_value', 'NONE');
#197 = PERSON_AND_ORGANIZATION ( #78, #215 ) ;
#198 = AXIS2_PLACEMENT_3D ( 'NONE', #1, #67, #133 ) ;
#199 = APPROVAL_ROLE ( '' ) ;
#200 = PERSON_AND_ORGANIZATION_ROLE ( 'creator' ) ;
#201 = FACE_OUTER_BOUND ( 'NONE', #116, .T. ) ;
#202 = DIRECTION ( 'NONE',  ( 4.275831445896958607E-31, 1.000000000000000000, 1.224646799147353207E-16 ) ) ;
#203 = FACE_OUTER_BOUND ( 'NONE', #150, .T. ) ;
#204 = FACE_OUTER_BOUND ( 'NONE', #169, .T. ) ;
#205 = ADVANCED_FACE ( 'NONE', ( #60 ), #42, .T. ) ;
#206 = FACE_BOUND ( 'NONE', #55, .T. ) ;
#207 = APPLICATION_PROTOCOL_DEFINITION ( 'international standard', 'config_control_design', 1994, #23 ) ;
#208 = MANIFOLD_SOLID_BREP ( 'Corps-Déplacer/Copier1[1]', #28 ) ;
#209 = DIRECTION ( 'NONE',  ( -3.491481338843133355E-15, 1.224646799147353207E-16, -1.000000000000000000 ) ) ;
#210 = VERTEX_POINT ( 'NONE', #7 ) ;
#211 = CC_DESIGN_DATE_AND_TIME_ASSIGNMENT ( #101, #125, ( #177 ) ) ;
#212 = CARTESIAN_POINT ( 'NONE',  ( 2.880472104545584703E-13, -1.010333609296566392E-14, 82.50000000000000000 ) ) ;
#213 = DESIGN_CONTEXT ( 'detailed design', #175, 'design' ) ;
#214 = EDGE_CURVE ( 'NONE', #72, #72, #107, .T. ) ;
#215 = ORGANIZATION ( 'UNSPECIFIED', 'UNSPECIFIED', '' ) ;
#216 = APPROVAL_DATE_TIME ( #11, #137 ) ;
#217 = PERSON_AND_ORGANIZATION ( #78, #215 ) ;
#218 = APPROVAL_STATUS ( 'not_yet_approved' ) ;
#219 = DATE_AND_TIME ( #178, #136 ) ;
#220 = CC_DESIGN_APPROVAL ( #137, ( #161 ) ) ;
#221 = CARTESIAN_POINT ( 'NONE',  ( 0.0000000000000000000, 0.0000000000000000000, 0.0000000000000000000 ) ) ;
#222 = CC_DESIGN_DATE_AND_TIME_ASSIGNMENT ( #97, #46, ( #68 ) ) ;
#223 = ORIENTED_EDGE ( 'NONE', *, *, #49, .F. ) ;
ENDSEC;
END-ISO-10303-21;
