ISO-10303-21;
HEADER;
FILE_DESCRIPTION (( 'STEP AP203' ),
    '1' );
FILE_NAME ('37146.step',
    '2021-11-17T10:13:21',
    ( '' ),
    ( '' ),
    'SwSTEP 2.0',
    'SolidWorks 2019',
    '' );
FILE_SCHEMA (( 'CONFIG_CONTROL_DESIGN' ));
ENDSEC;

DATA;
#1 = ADVANCED_FACE ( 'NONE', ( #8, #215 ), #75, .T. ) ;
#2 = APPROVAL_PERSON_ORGANIZATION ( #137, #184, #73 ) ;
#3 = EDGE_CURVE ( 'NONE', #148, #148, #146, .T. ) ;
#4 = COORDINATED_UNIVERSAL_TIME_OFFSET ( 1, 0, .AHEAD. ) ;
#5 = PERSON_AND_ORGANIZATION ( #132, #186 ) ;
#6 = DATE_AND_TIME ( #122, #91 ) ;
#7 = PERSON_AND_ORGANIZATION ( #132, #186 ) ;
#8 = FACE_OUTER_BOUND ( 'NONE', #194, .T. ) ;
#9 = CC_DESIGN_APPROVAL ( #207, ( #156 ) ) ;
#10 = EDGE_LOOP ( 'NONE', ( #213 ) ) ;
#11 = DIRECTION ( 'NONE',  ( -4.237045877651918877E-31, -1.000000000000000000, -1.192622389734054877E-16 ) ) ;
#12 = EDGE_CURVE ( 'NONE', #85, #85, #136, .T. ) ;
#13 = DIRECTION ( 'NONE',  ( 4.275831445896958607E-31, 1.000000000000000000, 1.224646799147353207E-16 ) ) ;
#14 = DIRECTION ( 'NONE',  ( -3.491481338843133355E-15, 1.224646799147353207E-16, -1.000000000000000000 ) ) ;
#15 = DIRECTION ( 'NONE',  ( 4.275831445896958607E-31, 1.000000000000000000, 1.224646799147353207E-16 ) ) ;
#16 = CARTESIAN_POINT ( 'NONE',  ( 2.496409157272840412E-13, -8.756224613903574137E-15, 71.50000000000000000 ) ) ;
#17 =( NAMED_UNIT ( * ) PLANE_ANGLE_UNIT ( ) SI_UNIT ( $, .RADIAN. ) );
#18 = AXIS2_PLACEMENT_3D ( 'NONE', #181, #164, #222 ) ;
#19 = DIRECTION ( 'NONE',  ( 1.000000000000000000, 0.0000000000000000000, 0.0000000000000000000 ) ) ;
#20 = CC_DESIGN_PERSON_AND_ORGANIZATION_ASSIGNMENT ( #40, #52, ( #121 ) ) ;
#21 = VERTEX_POINT ( 'NONE', #154 ) ;
#22 = CC_DESIGN_PERSON_AND_ORGANIZATION_ASSIGNMENT ( #92, #57, ( #182 ) ) ;
#23 = APPROVAL_STATUS ( 'not_yet_approved' ) ;
#24 = EDGE_LOOP ( 'NONE', ( #26 ) ) ;
#25 = CALENDAR_DATE ( 2021, 17, 11 ) ;
#26 = ORIENTED_EDGE ( 'NONE', *, *, #59, .T. ) ;
#27 = DIRECTION ( 'NONE',  ( 3.491481338843133355E-15, -1.217917285207545432E-16, 1.000000000000000000 ) ) ;
#28 = CARTESIAN_POINT ( 'NONE',  ( 2.496409157272840412E-13, -8.756224613903574137E-15, 71.50000000000000000 ) ) ;
#29 = DIRECTION ( 'NONE',  ( -4.237045877651918877E-31, -1.000000000000000000, -1.192622389734054877E-16 ) ) ;
#30 = DIRECTION ( 'NONE',  ( -3.491481338843133355E-15, 1.224646799147353207E-16, -1.000000000000000000 ) ) ;
#31 = CARTESIAN_POINT ( 'NONE',  ( 7.681258945454893382E-14, -2.694222958124176809E-15, 22.00000000000000000 ) ) ;
#32 = CARTESIAN_POINT ( 'NONE',  ( 0.0000000000000000000, 0.0000000000000000000, 0.0000000000000000000 ) ) ;
#33 = CC_DESIGN_APPROVAL ( #135, ( #182 ) ) ;
#34 = VERTEX_POINT ( 'NONE', #152 ) ;
#35 = CC_DESIGN_PERSON_AND_ORGANIZATION_ASSIGNMENT ( #191, #38, ( #156 ) ) ;
#36 = APPROVAL_ROLE ( '' ) ;
#37 = SECURITY_CLASSIFICATION_LEVEL ( 'unclassified' ) ;
#38 = PERSON_AND_ORGANIZATION_ROLE ( 'classification_officer' ) ;
#39 = ADVANCED_FACE ( 'NONE', ( #179, #84 ), #199, .T. ) ;
#40 = PERSON_AND_ORGANIZATION ( #132, #186 ) ;
#41 = DIRECTION ( 'NONE',  ( 4.275831445896958607E-31, 1.000000000000000000, 1.224646799147353207E-16 ) ) ;
#42 = EDGE_CURVE ( 'NONE', #101, #101, #116, .T. ) ;
#43 = CLOSED_SHELL ( 'NONE', ( #39, #172, #66, #123 ) ) ;
#44 = CIRCLE ( 'NONE', #71, 5.000000000000000000 ) ;
#45 = FACE_OUTER_BOUND ( 'NONE', #159, .T. ) ;
#46 = DIRECTION ( 'NONE',  ( 0.0000000000000000000, 1.000000000000000000, 0.0000000000000000000 ) ) ;
#47 = DIRECTION ( 'NONE',  ( 4.275831445896958607E-31, 1.000000000000000000, 1.224646799147353207E-16 ) ) ;
#48 = CARTESIAN_POINT ( 'NONE',  ( 2.513866563967056016E-13, 3.374459510989167028E-32, 72.00000000000000000 ) ) ;
#49 =( NAMED_UNIT ( * ) SI_UNIT ( $, .STERADIAN. ) SOLID_ANGLE_UNIT ( ) );
#50 = AXIS2_PLACEMENT_3D ( 'NONE', #166, #27, #29 ) ;
#51 = AXIS2_PLACEMENT_3D ( 'NONE', #134, #14, #47 ) ;
#52 = PERSON_AND_ORGANIZATION_ROLE ( 'creator' ) ;
#53 = AXIS2_PLACEMENT_3D ( 'NONE', #99, #131, #98 ) ;
#54 = DATE_AND_TIME ( #209, #175 ) ;
#55 = APPROVAL_STATUS ( 'not_yet_approved' ) ;
#56 = CC_DESIGN_DATE_AND_TIME_ASSIGNMENT ( #6, #126, ( #182 ) ) ;
#57 = PERSON_AND_ORGANIZATION_ROLE ( 'creator' ) ;
#58 = AXIS2_PLACEMENT_3D ( 'NONE', #117, #200, #180 ) ;
#59 = EDGE_CURVE ( 'NONE', #65, #65, #44, .T. ) ;
#60 = CARTESIAN_POINT ( 'NONE',  ( 0.0000000000000000000, 0.0000000000000000000, 0.0000000000000000000 ) ) ;
#61 = DIRECTION ( 'NONE',  ( -3.491481338843133355E-15, 1.224646799147353207E-16, -1.000000000000000000 ) ) ;
#62 = CIRCLE ( 'NONE', #63, 4.500000000000000888 ) ;
#63 = AXIS2_PLACEMENT_3D ( 'NONE', #69, #219, #103 ) ;
#64 = DIRECTION ( 'NONE',  ( 0.0000000000000000000, 1.000000000000000000, 0.0000000000000000000 ) ) ;
#65 = VERTEX_POINT ( 'NONE', #119 ) ;
#66 = ADVANCED_FACE ( 'NONE', ( #201, #102 ), #173, .T. ) ;
#67 = PLANE ( 'NONE',  #178 ) ;
#68 =( GEOMETRIC_REPRESENTATION_CONTEXT ( 3 ) GLOBAL_UNCERTAINTY_ASSIGNED_CONTEXT ( ( #211 ) ) GLOBAL_UNIT_ASSIGNED_CONTEXT ( ( #203, #17, #49 ) ) REPRESENTATION_CONTEXT ( 'NONE', 'WORKASPACE' ) );
#69 = CARTESIAN_POINT ( 'NONE',  ( 2.513866563967056016E-13, -8.817456953860941711E-15, 72.00000000000000000 ) ) ;
#70 = CC_DESIGN_DATE_AND_TIME_ASSIGNMENT ( #54, #160, ( #156 ) ) ;
#71 = AXIS2_PLACEMENT_3D ( 'NONE', #31, #30, #198 ) ;
#72 = ORIENTED_EDGE ( 'NONE', *, *, #3, .T. ) ;
#73 = APPROVAL_ROLE ( '' ) ;
#74 = APPROVAL_ROLE ( '' ) ;
#75 = CYLINDRICAL_SURFACE ( 'NONE', #104, 4.999999999999999112 ) ;
#76 = APPROVAL_PERSON_ORGANIZATION ( #7, #207, #74 ) ;
#77 = CC_DESIGN_PERSON_AND_ORGANIZATION_ASSIGNMENT ( #5, #90, ( #108 ) ) ;
#78 = ORIENTED_EDGE ( 'NONE', *, *, #204, .F. ) ;
#79 = FACE_OUTER_BOUND ( 'NONE', #128, .T. ) ;
#80 = FACE_OUTER_BOUND ( 'NONE', #111, .T. ) ;
#81 = AXIS2_PLACEMENT_3D ( 'NONE', #48, #61, #13 ) ;
#82 = AXIS2_PLACEMENT_3D ( 'NONE', #28, #145, #64 ) ;
#83 = FACE_OUTER_BOUND ( 'NONE', #171, .T. ) ;
#84 = FACE_OUTER_BOUND ( 'NONE', #10, .T. ) ;
#85 = VERTEX_POINT ( 'NONE', #150 ) ;
#86 = AXIS2_PLACEMENT_3D ( 'NONE', #167, #115, #11 ) ;
#87 = MECHANICAL_CONTEXT ( 'NONE', #89, 'mechanical' ) ;
#88 = LOCAL_TIME ( 11, 13, 21.00000000000000000, #110 ) ;
#89 = APPLICATION_CONTEXT ( 'configuration controlled 3d designs of mechanical parts and assemblies' ) ;
#90 = PERSON_AND_ORGANIZATION_ROLE ( 'design_owner' ) ;
#91 = LOCAL_TIME ( 11, 13, 21.00000000000000000, #205 ) ;
#92 = PERSON_AND_ORGANIZATION ( #132, #186 ) ;
#93 = PERSON_AND_ORGANIZATION_ROLE ( 'design_supplier' ) ;
#94 = EDGE_LOOP ( 'NONE', ( #177 ) ) ;
#95 = DATE_AND_TIME ( #174, #88 ) ;
#96 = ORIENTED_EDGE ( 'NONE', *, *, #42, .T. ) ;
#97 = APPROVAL_PERSON_ORGANIZATION ( #176, #135, #36 ) ;
#98 = DIRECTION ( 'NONE',  ( -4.252335473556634944E-31, -1.000000000000000000, -1.217917285207545432E-16 ) ) ;
#99 = CARTESIAN_POINT ( 'NONE',  ( -2.041121027307184423E-30, 7.119948065315121647E-32, -5.846002968996216498E-16 ) ) ;
#100 = EDGE_CURVE ( 'NONE', #21, #21, #62, .T. ) ;
#101 = VERTEX_POINT ( 'NONE', #165 ) ;
#102 = FACE_OUTER_BOUND ( 'NONE', #208, .T. ) ;
#103 = DIRECTION ( 'NONE',  ( 0.0000000000000000000, 1.000000000000000000, 0.0000000000000000000 ) ) ;
#104 = AXIS2_PLACEMENT_3D ( 'NONE', #60, #195, #41 ) ;
#105 = DIRECTION ( 'NONE',  ( 0.0000000000000000000, 0.0000000000000000000, 1.000000000000000000 ) ) ;
#106 = CLOSED_SHELL ( 'NONE', ( #109, #1, #162, #114 ) ) ;
#107 = COORDINATED_UNIVERSAL_TIME_OFFSET ( 1, 0, .AHEAD. ) ;
#108 = PRODUCT ( '37146', '37146', '', ( #87 ) ) ;
#109 = ADVANCED_FACE ( 'NONE', ( #149 ), #163, .F. ) ;
#110 = COORDINATED_UNIVERSAL_TIME_OFFSET ( 1, 0, .AHEAD. ) ;
#111 = EDGE_LOOP ( 'NONE', ( #78 ) ) ;
#112 = CALENDAR_DATE ( 2021, 17, 11 ) ;
#113 = ORIENTED_EDGE ( 'NONE', *, *, #12, .F. ) ;
#114 = ADVANCED_FACE ( 'NONE', ( #79 ), #130, .F. ) ;
#115 = DIRECTION ( 'NONE',  ( 3.491481338843133355E-15, -1.217917285207545432E-16, 1.000000000000000000 ) ) ;
#116 = CIRCLE ( 'NONE', #18, 5.000000000000000000 ) ;
#117 = CARTESIAN_POINT ( 'NONE',  ( 7.681258945454893382E-14, 3.749399456654640188E-32, 22.00000000000000000 ) ) ;
#118 = PLANE ( 'NONE',  #58 ) ;
#119 = CARTESIAN_POINT ( 'NONE',  ( 7.681258945454893382E-14, 4.999999999999997335, 22.00000000000000000 ) ) ;
#120 = DIRECTION ( 'NONE',  ( -4.275831445896958607E-31, -1.000000000000000000, -1.224646799147353207E-16 ) ) ;
#121 = PRODUCT_DEFINITION_FORMATION_WITH_SPECIFIED_SOURCE ( 'ANY', '', #108, .NOT_KNOWN. ) ;
#122 = CALENDAR_DATE ( 2021, 17, 11 ) ;
#123 = ADVANCED_FACE ( 'NONE', ( #83 ), #67, .T. ) ;
#124 = APPROVAL_DATE_TIME ( #95, #135 ) ;
#125 = DESIGN_CONTEXT ( 'detailed design', #216, 'design' ) ;
#126 = DATE_TIME_ROLE ( 'creation_date' ) ;
#127 = LOCAL_TIME ( 11, 13, 21.00000000000000000, #107 ) ;
#128 = EDGE_LOOP ( 'NONE', ( #161 ) ) ;
#129 = CIRCLE ( 'NONE', #82, 4.999999999999999112 ) ;
#130 = PLANE ( 'NONE',  #81 ) ;
#131 = DIRECTION ( 'NONE',  ( 3.491481338843133355E-15, -1.217917285207545432E-16, 1.000000000000000000 ) ) ;
#132 = PERSON ( 'UNSPECIFIED', 'UNSPECIFIED', 'UNSPECIFIED', ('UNSPECIFIED'), ('UNSPECIFIED'), ('UNSPECIFIED') ) ;
#133 = DIRECTION ( 'NONE',  ( -3.491481338843133355E-15, 1.224646799147353207E-16, -1.000000000000000000 ) ) ;
#134 = CARTESIAN_POINT ( 'NONE',  ( 0.0000000000000000000, 0.0000000000000000000, 0.0000000000000000000 ) ) ;
#135 = APPROVAL ( #23, 'UNSPECIFIED' ) ;
#136 = CIRCLE ( 'NONE', #86, 5.000000000000000000 ) ;
#137 = PERSON_AND_ORGANIZATION ( #132, #186 ) ;
#138 = APPROVAL_DATE_TIME ( #212, #184 ) ;
#139 = ORIENTED_EDGE ( 'NONE', *, *, #100, .T. ) ;
#140 = EDGE_LOOP ( 'NONE', ( #72 ) ) ;
#141 = DATE_AND_TIME ( #112, #127 ) ;
#142 = EDGE_LOOP ( 'NONE', ( #96 ) ) ;
#143 = CC_DESIGN_PERSON_AND_ORGANIZATION_ASSIGNMENT ( #187, #93, ( #121 ) ) ;
#144 = CARTESIAN_POINT ( 'NONE',  ( -1.068957861474239564E-30, 3.749399456654644020E-32, -3.061616997868383141E-16 ) ) ;
#145 = DIRECTION ( 'NONE',  ( -3.491481338843133355E-15, 1.224646799147353207E-16, -1.000000000000000000 ) ) ;
#146 = CIRCLE ( 'NONE', #53, 4.799999999999998934 ) ;
#147 = CC_DESIGN_SECURITY_CLASSIFICATION ( #156, ( #121 ) ) ;
#148 = VERTEX_POINT ( 'NONE', #220 ) ;
#149 = FACE_OUTER_BOUND ( 'NONE', #24, .T. ) ;
#150 = CARTESIAN_POINT ( 'NONE',  ( 6.982962677686235156E-16, -5.000000000000000000, 0.1999999999999990952 ) ) ;
#151 = MANIFOLD_SOLID_BREP ( 'Corps-Déplacer/Copier1[1]', #106 ) ;
#152 = CARTESIAN_POINT ( 'NONE',  ( 2.496409157272840412E-13, 4.999999999999990230, 71.50000000000000000 ) ) ;
#153 = MANIFOLD_SOLID_BREP ( 'Corps-Déplacer/Copier1[2]', #43 ) ;
#154 = CARTESIAN_POINT ( 'NONE',  ( 2.513866563967056016E-13, 4.499999999999992006, 72.00000000000000000 ) ) ;
#155 = APPLICATION_PROTOCOL_DEFINITION ( 'international standard', 'config_control_design', 1994, #216 ) ;
#156 = SECURITY_CLASSIFICATION ( '', '', #37 ) ;
#157 = EDGE_LOOP ( 'NONE', ( #139 ) ) ;
#158 = COORDINATED_UNIVERSAL_TIME_OFFSET ( 1, 0, .AHEAD. ) ;
#159 = EDGE_LOOP ( 'NONE', ( #189 ) ) ;
#160 = DATE_TIME_ROLE ( 'classification_date' ) ;
#161 = ORIENTED_EDGE ( 'NONE', *, *, #100, .F. ) ;
#162 = ADVANCED_FACE ( 'NONE', ( #197, #80 ), #168, .T. ) ;
#163 = PLANE ( 'NONE',  #218 ) ;
#164 = DIRECTION ( 'NONE',  ( -3.491481338843133355E-15, 1.224646799147353207E-16, -1.000000000000000000 ) ) ;
#165 = CARTESIAN_POINT ( 'NONE',  ( 7.681258945454893382E-14, 4.999999999999997335, 22.00000000000000000 ) ) ;
#166 = CARTESIAN_POINT ( 'NONE',  ( 6.982962677686255864E-16, -2.435834570415086921E-17, 0.1999999999999996780 ) ) ;
#167 = CARTESIAN_POINT ( 'NONE',  ( 6.982962677686255864E-16, -2.435834570415086921E-17, 0.1999999999999996780 ) ) ;
#168 = CONICAL_SURFACE ( 'NONE', #170, 4.999999999999999112, 0.7853981633974466137 ) ;
#169 = ADVANCED_BREP_SHAPE_REPRESENTATION ( '37146', ( #151, #153, #185 ), #68 ) ;
#170 = AXIS2_PLACEMENT_3D ( 'NONE', #16, #221, #46 ) ;
#171 = EDGE_LOOP ( 'NONE', ( #193 ) ) ;
#172 = ADVANCED_FACE ( 'NONE', ( #45 ), #118, .T. ) ;
#173 = CONICAL_SURFACE ( 'NONE', #50, 5.000000000000000000, 0.7853981633974510546 ) ;
#174 = CALENDAR_DATE ( 2021, 17, 11 ) ;
#175 = LOCAL_TIME ( 11, 13, 21.00000000000000000, #158 ) ;
#176 = PERSON_AND_ORGANIZATION ( #132, #186 ) ;
#177 = ORIENTED_EDGE ( 'NONE', *, *, #59, .F. ) ;
#178 = AXIS2_PLACEMENT_3D ( 'NONE', #144, #133, #15 ) ;
#179 = FACE_OUTER_BOUND ( 'NONE', #142, .T. ) ;
#180 = DIRECTION ( 'NONE',  ( -4.275831445896958607E-31, -1.000000000000000000, -1.224646799147353207E-16 ) ) ;
#181 = CARTESIAN_POINT ( 'NONE',  ( 7.681258945454893382E-14, -2.694222958124176809E-15, 22.00000000000000000 ) ) ;
#182 = PRODUCT_DEFINITION ( 'UNKNOWN', '', #121, #125 ) ;
#183 = CARTESIAN_POINT ( 'NONE',  ( 7.681258945454893382E-14, 3.749399456654640188E-32, 22.00000000000000000 ) ) ;
#184 = APPROVAL ( #192, 'UNSPECIFIED' ) ;
#185 = AXIS2_PLACEMENT_3D ( 'NONE', #32, #105, #19 ) ;
#186 = ORGANIZATION ( 'UNSPECIFIED', 'UNSPECIFIED', '' ) ;
#187 = PERSON_AND_ORGANIZATION ( #132, #186 ) ;
#188 = APPROVAL_DATE_TIME ( #141, #207 ) ;
#189 = ORIENTED_EDGE ( 'NONE', *, *, #42, .F. ) ;
#190 = PRODUCT_RELATED_PRODUCT_CATEGORY ( 'detail', '', ( #108 ) ) ;
#191 = PERSON_AND_ORGANIZATION ( #132, #186 ) ;
#192 = APPROVAL_STATUS ( 'not_yet_approved' ) ;
#193 = ORIENTED_EDGE ( 'NONE', *, *, #3, .F. ) ;
#194 = EDGE_LOOP ( 'NONE', ( #210 ) ) ;
#195 = DIRECTION ( 'NONE',  ( -3.491481338843133355E-15, 1.224646799147353207E-16, -1.000000000000000000 ) ) ;
#196 = CC_DESIGN_APPROVAL ( #184, ( #121 ) ) ;
#197 = FACE_BOUND ( 'NONE', #157, .T. ) ;
#198 = DIRECTION ( 'NONE',  ( 0.0000000000000000000, 1.000000000000000000, 0.0000000000000000000 ) ) ;
#199 = CYLINDRICAL_SURFACE ( 'NONE', #51, 5.000000000000000000 ) ;
#200 = DIRECTION ( 'NONE',  ( 3.491481338843133355E-15, -1.224646799147353207E-16, 1.000000000000000000 ) ) ;
#201 = FACE_BOUND ( 'NONE', #140, .T. ) ;
#202 = PRODUCT_DEFINITION_SHAPE ( 'NONE', 'NONE',  #182 ) ;
#203 =( LENGTH_UNIT ( ) NAMED_UNIT ( * ) SI_UNIT ( .MILLI., .METRE. ) );
#204 = EDGE_CURVE ( 'NONE', #34, #34, #129, .T. ) ;
#205 = COORDINATED_UNIVERSAL_TIME_OFFSET ( 1, 0, .AHEAD. ) ;
#206 = LOCAL_TIME ( 11, 13, 21.00000000000000000, #4 ) ;
#207 = APPROVAL ( #55, 'UNSPECIFIED' ) ;
#208 = EDGE_LOOP ( 'NONE', ( #113 ) ) ;
#209 = CALENDAR_DATE ( 2021, 17, 11 ) ;
#210 = ORIENTED_EDGE ( 'NONE', *, *, #204, .T. ) ;
#211 = UNCERTAINTY_MEASURE_WITH_UNIT (LENGTH_MEASURE( 1.000000000000000082E-05 ), #203, 'distance_accuracy_value', 'NONE');
#212 = DATE_AND_TIME ( #25, #206 ) ;
#213 = ORIENTED_EDGE ( 'NONE', *, *, #12, .T. ) ;
#214 = SHAPE_DEFINITION_REPRESENTATION ( #202, #169 ) ;
#215 = FACE_OUTER_BOUND ( 'NONE', #94, .T. ) ;
#216 = APPLICATION_CONTEXT ( 'configuration controlled 3d designs of mechanical parts and assemblies' ) ;
#217 = DIRECTION ( 'NONE',  ( 3.491481338843133355E-15, -1.224646799147353207E-16, 1.000000000000000000 ) ) ;
#218 = AXIS2_PLACEMENT_3D ( 'NONE', #183, #217, #120 ) ;
#219 = DIRECTION ( 'NONE',  ( -3.491481338843133355E-15, 1.224646799147353207E-16, -1.000000000000000000 ) ) ;
#220 = CARTESIAN_POINT ( 'NONE',  ( -4.082242054614368845E-30, -4.799999999999998934, -1.169200593799243300E-15 ) ) ;
#221 = DIRECTION ( 'NONE',  ( -3.491481338843133355E-15, 1.224646799147353207E-16, -1.000000000000000000 ) ) ;
#222 = DIRECTION ( 'NONE',  ( 0.0000000000000000000, 1.000000000000000000, 0.0000000000000000000 ) ) ;
#223 = APPLICATION_PROTOCOL_DEFINITION ( 'international standard', 'config_control_design', 1994, #89 ) ;
ENDSEC;
END-ISO-10303-21;
