ISO-10303-21;
HEADER;
FILE_DESCRIPTION (( 'STEP AP203' ),
    '1' );
FILE_NAME ('37145.step',
    '2021-11-17T09:16:08',
    ( '' ),
    ( '' ),
    'SwSTEP 2.0',
    'SolidWorks 2019',
    '' );
FILE_SCHEMA (( 'CONFIG_CONTROL_DESIGN' ));
ENDSEC;

DATA;
#1 = PERSON_AND_ORGANIZATION_ROLE ( 'creator' ) ;
#2 = APPROVAL_ROLE ( '' ) ;
#3 = APPLICATION_CONTEXT ( 'configuration controlled 3d designs of mechanical parts and assemblies' ) ;
#4 = CLOSED_SHELL ( 'NONE', ( #88, #58, #142, #199 ) ) ;
#5 = PERSON_AND_ORGANIZATION_ROLE ( 'creator' ) ;
#6 = EDGE_LOOP ( 'NONE', ( #25 ) ) ;
#7 = APPROVAL_DATE_TIME ( #27, #141 ) ;
#8 = ORIENTED_EDGE ( 'NONE', *, *, #110, .F. ) ;
#9 = DIRECTION ( 'NONE',  ( 3.491481338843133355E-15, -1.217917285207545432E-16, 1.000000000000000000 ) ) ;
#10 = EDGE_CURVE ( 'NONE', #35, #35, #59, .T. ) ;
#11 = DIRECTION ( 'NONE',  ( -3.491481338843133355E-15, 1.224646799147353207E-16, -1.000000000000000000 ) ) ;
#12 = FACE_OUTER_BOUND ( 'NONE', #82, .T. ) ;
#13 = CYLINDRICAL_SURFACE ( 'NONE', #133, 8.000000000000000000 ) ;
#14 = AXIS2_PLACEMENT_3D ( 'NONE', #165, #148, #223 ) ;
#15 = FACE_OUTER_BOUND ( 'NONE', #104, .T. ) ;
#16 = CC_DESIGN_PERSON_AND_ORGANIZATION_ASSIGNMENT ( #155, #5, ( #119 ) ) ;
#17 = SECURITY_CLASSIFICATION_LEVEL ( 'unclassified' ) ;
#18 = VERTEX_POINT ( 'NONE', #118 ) ;
#19 = CIRCLE ( 'NONE', #98, 8.000000000000001776 ) ;
#20 = DIRECTION ( 'NONE',  ( 0.0000000000000000000, 0.0000000000000000000, 1.000000000000000000 ) ) ;
#21 = EDGE_CURVE ( 'NONE', #128, #128, #204, .T. ) ;
#22 = VERTEX_POINT ( 'NONE', #38 ) ;
#23 = ORIENTED_EDGE ( 'NONE', *, *, #110, .T. ) ;
#24 = DATE_AND_TIME ( #171, #144 ) ;
#25 = ORIENTED_EDGE ( 'NONE', *, *, #220, .F. ) ;
#26 = LOCAL_TIME ( 10, 16, 8.000000000000000000, #55 ) ;
#27 = DATE_AND_TIME ( #103, #186 ) ;
#28 = EDGE_LOOP ( 'NONE', ( #160 ) ) ;
#29 = AXIS2_PLACEMENT_3D ( 'NONE', #95, #9, #166 ) ;
#30 = CYLINDRICAL_SURFACE ( 'NONE', #210, 8.000000000000000000 ) ;
#31 = PERSON ( 'UNSPECIFIED', 'UNSPECIFIED', 'UNSPECIFIED', ('UNSPECIFIED'), ('UNSPECIFIED'), ('UNSPECIFIED') ) ;
#32 = DIRECTION ( 'NONE',  ( -3.491481338843133355E-15, 1.224646799147353207E-16, -1.000000000000000000 ) ) ;
#33 = DIRECTION ( 'NONE',  ( -3.491481338843133355E-15, 1.224646799147353207E-16, -1.000000000000000000 ) ) ;
#34 = CC_DESIGN_DATE_AND_TIME_ASSIGNMENT ( #209, #121, ( #79 ) ) ;
#35 = VERTEX_POINT ( 'NONE', #216 ) ;
#36 = ADVANCED_FACE ( 'NONE', ( #12 ), #108, .T. ) ;
#37 = EDGE_CURVE ( 'NONE', #190, #190, #184, .T. ) ;
#38 = CARTESIAN_POINT ( 'NONE',  ( 1.256933281983528008E-13, 7.999999999999996447, 36.00000000000000000 ) ) ;
#39 = APPROVAL_PERSON_ORGANIZATION ( #195, #215, #49 ) ;
#40 = DIRECTION ( 'NONE',  ( -3.491481338843133355E-15, 1.224646799147353207E-16, -1.000000000000000000 ) ) ;
#41 = APPROVAL_STATUS ( 'not_yet_approved' ) ;
#42 = ORIENTED_EDGE ( 'NONE', *, *, #10, .F. ) ;
#43 = DESIGN_CONTEXT ( 'detailed design', #159, 'design' ) ;
#44 = CIRCLE ( 'NONE', #90, 7.799999999999999822 ) ;
#45 = DIRECTION ( 'NONE',  ( 0.0000000000000000000, 1.000000000000000000, 0.0000000000000000000 ) ) ;
#46 = FACE_OUTER_BOUND ( 'NONE', #107, .T. ) ;
#47 = PLANE ( 'NONE',  #173 ) ;
#48 = DIRECTION ( 'NONE',  ( -3.491481338843133355E-15, 1.224646799147353207E-16, -1.000000000000000000 ) ) ;
#49 = APPROVAL_ROLE ( '' ) ;
#50 = APPLICATION_PROTOCOL_DEFINITION ( 'international standard', 'config_control_design', 1994, #3 ) ;
#51 = AXIS2_PLACEMENT_3D ( 'NONE', #221, #73, #61 ) ;
#52 = SECURITY_CLASSIFICATION ( '', '', #17 ) ;
#53 = ORIENTED_EDGE ( 'NONE', *, *, #21, .F. ) ;
#54 = CALENDAR_DATE ( 2021, 17, 11 ) ;
#55 = COORDINATED_UNIVERSAL_TIME_OFFSET ( 1, 0, .AHEAD. ) ;
#56 = PERSON_AND_ORGANIZATION ( #31, #192 ) ;
#57 = PRODUCT_RELATED_PRODUCT_CATEGORY ( 'detail', '', ( #136 ) ) ;
#58 = ADVANCED_FACE ( 'NONE', ( #146, #15 ), #13, .T. ) ;
#59 = CIRCLE ( 'NONE', #169, 8.000000000000000000 ) ;
#60 = DIRECTION ( 'NONE',  ( 0.0000000000000000000, 1.000000000000000000, 0.0000000000000000000 ) ) ;
#61 = DIRECTION ( 'NONE',  ( 0.0000000000000000000, 1.000000000000000000, 0.0000000000000000000 ) ) ;
#62 = CONICAL_SURFACE ( 'NONE', #29, 8.000000000000000000, 0.7853981633974492782 ) ;
#63 = PLANE ( 'NONE',  #66 ) ;
#64 = CARTESIAN_POINT ( 'NONE',  ( 1.256933281983528008E-13, 5.999039130647424958E-32, 36.00000000000000000 ) ) ;
#65 = DIRECTION ( 'NONE',  ( 3.491481338843133355E-15, -1.217917285207545432E-16, 1.000000000000000000 ) ) ;
#66 = AXIS2_PLACEMENT_3D ( 'NONE', #64, #77, #147 ) ;
#67 = PERSON_AND_ORGANIZATION ( #31, #192 ) ;
#68 = COORDINATED_UNIVERSAL_TIME_OFFSET ( 1, 0, .AHEAD. ) ;
#69 = COORDINATED_UNIVERSAL_TIME_OFFSET ( 1, 0, .AHEAD. ) ;
#70 = ORIENTED_EDGE ( 'NONE', *, *, #220, .T. ) ;
#71 = APPROVAL_PERSON_ORGANIZATION ( #97, #219, #2 ) ;
#72 = ORIENTED_EDGE ( 'NONE', *, *, #188, .F. ) ;
#73 = DIRECTION ( 'NONE',  ( -3.491481338843133355E-15, 1.224646799147353207E-16, -1.000000000000000000 ) ) ;
#74 = PLANE ( 'NONE',  #151 ) ;
#75 = CARTESIAN_POINT ( 'NONE',  ( 0.0000000000000000000, 0.0000000000000000000, 0.0000000000000000000 ) ) ;
#76 = AXIS2_PLACEMENT_3D ( 'NONE', #93, #187, #45 ) ;
#77 = DIRECTION ( 'NONE',  ( 3.491481338843133355E-15, -1.224646799147353207E-16, 1.000000000000000000 ) ) ;
#78 = CARTESIAN_POINT ( 'NONE',  ( -3.316821669374175431E-30, 1.156991560613707582E-31, -9.499754824618855260E-16 ) ) ;
#79 = PRODUCT_DEFINITION ( 'UNKNOWN', '', #119, #43 ) ;
#80 = DIRECTION ( 'NONE',  ( 1.000000000000000000, 0.0000000000000000000, 0.0000000000000000000 ) ) ;
#81 = PERSON_AND_ORGANIZATION_ROLE ( 'design_owner' ) ;
#82 = EDGE_LOOP ( 'NONE', ( #120 ) ) ;
#83 = CC_DESIGN_PERSON_AND_ORGANIZATION_ASSIGNMENT ( #211, #1, ( #79 ) ) ;
#84 = APPROVAL_DATE_TIME ( #24, #215 ) ;
#85 = ORIENTED_EDGE ( 'NONE', *, *, #188, .T. ) ;
#86 = CALENDAR_DATE ( 2021, 17, 11 ) ;
#87 = CC_DESIGN_DATE_AND_TIME_ASSIGNMENT ( #139, #214, ( #52 ) ) ;
#88 = ADVANCED_FACE ( 'NONE', ( #46 ), #63, .F. ) ;
#89 = ADVANCED_FACE ( 'NONE', ( #179 ), #74, .T. ) ;
#90 = AXIS2_PLACEMENT_3D ( 'NONE', #78, #65, #132 ) ;
#91 = DIRECTION ( 'NONE',  ( 4.275831445896958607E-31, 1.000000000000000000, 1.224646799147353207E-16 ) ) ;
#92 = DIRECTION ( 'NONE',  ( 4.275831445896958607E-31, 1.000000000000000000, 1.224646799147353207E-16 ) ) ;
#93 = CARTESIAN_POINT ( 'NONE',  ( 3.474023932148917752E-13, -1.218523565151616460E-14, 99.50000000000000000 ) ) ;
#94 = CC_DESIGN_APPROVAL ( #215, ( #119 ) ) ;
#95 = CARTESIAN_POINT ( 'NONE',  ( 6.982962677686239100E-16, -2.435834570415081066E-17, 0.1999999999999992062 ) ) ;
#96 = FACE_OUTER_BOUND ( 'NONE', #156, .T. ) ;
#97 = PERSON_AND_ORGANIZATION ( #31, #192 ) ;
#98 = AXIS2_PLACEMENT_3D ( 'NONE', #182, #11, #164 ) ;
#99 =( LENGTH_UNIT ( ) NAMED_UNIT ( * ) SI_UNIT ( .MILLI., .METRE. ) );
#100 = PRODUCT_DEFINITION_SHAPE ( 'NONE', 'NONE',  #79 ) ;
#101 = CARTESIAN_POINT ( 'NONE',  ( 1.256933281983528008E-13, 7.999999999999996447, 36.00000000000000000 ) ) ;
#102 = COORDINATED_UNIVERSAL_TIME_OFFSET ( 1, 0, .AHEAD. ) ;
#103 = CALENDAR_DATE ( 2021, 17, 11 ) ;
#104 = EDGE_LOOP ( 'NONE', ( #8 ) ) ;
#105 = CIRCLE ( 'NONE', #14, 8.000000000000000000 ) ;
#106 = CC_DESIGN_SECURITY_CLASSIFICATION ( #52, ( #119 ) ) ;
#107 = EDGE_LOOP ( 'NONE', ( #23 ) ) ;
#108 = PLANE ( 'NONE',  #185 ) ;
#109 = APPROVAL_PERSON_ORGANIZATION ( #56, #141, #197 ) ;
#110 = EDGE_CURVE ( 'NONE', #22, #22, #19, .T. ) ;
#111 = FACE_OUTER_BOUND ( 'NONE', #198, .T. ) ;
#112 = SHAPE_DEFINITION_REPRESENTATION ( #100, #191 ) ;
#113 = CARTESIAN_POINT ( 'NONE',  ( 3.491481338843133355E-13, -1.224646799147353217E-14, 100.0000000000000000 ) ) ;
#114 = FACE_BOUND ( 'NONE', #200, .T. ) ;
#115 = AXIS2_PLACEMENT_3D ( 'NONE', #189, #20, #80 ) ;
#116 = CC_DESIGN_APPROVAL ( #141, ( #52 ) ) ;
#117 = CARTESIAN_POINT ( 'NONE',  ( -1.710332578358783092E-30, 5.999039130647430431E-32, -4.898587196589412829E-16 ) ) ;
#118 = CARTESIAN_POINT ( 'NONE',  ( -6.633643338748350863E-30, -7.799999999999999822, -1.899950964923771052E-15 ) ) ;
#119 = PRODUCT_DEFINITION_FORMATION_WITH_SPECIFIED_SOURCE ( 'ANY', '', #136, .NOT_KNOWN. ) ;
#120 = ORIENTED_EDGE ( 'NONE', *, *, #37, .F. ) ;
#121 = DATE_TIME_ROLE ( 'creation_date' ) ;
#122 = EDGE_LOOP ( 'NONE', ( #42 ) ) ;
#123 = APPROVAL_DATE_TIME ( #137, #219 ) ;
#124 = APPROVAL_STATUS ( 'not_yet_approved' ) ;
#125 = AXIS2_PLACEMENT_3D ( 'NONE', #113, #48, #217 ) ;
#126 = UNCERTAINTY_MEASURE_WITH_UNIT (LENGTH_MEASURE( 1.000000000000000082E-05 ), #99, 'distance_accuracy_value', 'NONE');
#127 = EDGE_LOOP ( 'NONE', ( #72 ) ) ;
#128 = VERTEX_POINT ( 'NONE', #153 ) ;
#129 = CARTESIAN_POINT ( 'NONE',  ( 0.0000000000000000000, 0.0000000000000000000, 0.0000000000000000000 ) ) ;
#130 = DIRECTION ( 'NONE',  ( -3.491481338843133355E-15, 1.224646799147353207E-16, -1.000000000000000000 ) ) ;
#131 = DIRECTION ( 'NONE',  ( 4.275831445896958607E-31, 1.000000000000000000, 1.224646799147353207E-16 ) ) ;
#132 = DIRECTION ( 'NONE',  ( -4.252335473556634944E-31, -1.000000000000000000, -1.217917285207545679E-16 ) ) ;
#133 = AXIS2_PLACEMENT_3D ( 'NONE', #129, #33, #91 ) ;
#134 =( NAMED_UNIT ( * ) PLANE_ANGLE_UNIT ( ) SI_UNIT ( $, .RADIAN. ) );
#135 = CARTESIAN_POINT ( 'NONE',  ( 6.982962677686204588E-16, -8.000000000000000000, 0.1999999999999982070 ) ) ;
#136 = PRODUCT ( '37145', '37145', '', ( #193 ) ) ;
#137 = DATE_AND_TIME ( #168, #205 ) ;
#138 = VERTEX_POINT ( 'NONE', #135 ) ;
#139 = DATE_AND_TIME ( #86, #178 ) ;
#140 = MANIFOLD_SOLID_BREP ( 'Corps-Déplacer/Copier1[1]', #4 ) ;
#141 = APPROVAL ( #124, 'UNSPECIFIED' ) ;
#142 = ADVANCED_FACE ( 'NONE', ( #203, #181 ), #177, .T. ) ;
#143 = MANIFOLD_SOLID_BREP ( 'Corps-Déplacer/Copier1[2]', #161 ) ;
#144 = LOCAL_TIME ( 10, 16, 8.000000000000000000, #102 ) ;
#145 = FACE_OUTER_BOUND ( 'NONE', #28, .T. ) ;
#146 = FACE_OUTER_BOUND ( 'NONE', #213, .T. ) ;
#147 = DIRECTION ( 'NONE',  ( -4.275831445896958607E-31, -1.000000000000000000, -1.224646799147353207E-16 ) ) ;
#148 = DIRECTION ( 'NONE',  ( 3.491481338843133355E-15, -1.217917285207545432E-16, 1.000000000000000000 ) ) ;
#149 = DIRECTION ( 'NONE',  ( -3.491481338843133355E-15, 1.224646799147353207E-16, -1.000000000000000000 ) ) ;
#150 =( NAMED_UNIT ( * ) SI_UNIT ( $, .STERADIAN. ) SOLID_ANGLE_UNIT ( ) );
#151 = AXIS2_PLACEMENT_3D ( 'NONE', #117, #32, #92 ) ;
#152 = APPLICATION_PROTOCOL_DEFINITION ( 'international standard', 'config_control_design', 1994, #159 ) ;
#153 = CARTESIAN_POINT ( 'NONE',  ( 3.491481338843133355E-13, 7.499999999999987566, 100.0000000000000000 ) ) ;
#154 = APPROVAL_STATUS ( 'not_yet_approved' ) ;
#155 = PERSON_AND_ORGANIZATION ( #31, #192 ) ;
#156 = EDGE_LOOP ( 'NONE', ( #53 ) ) ;
#157 = COORDINATED_UNIVERSAL_TIME_OFFSET ( 1, 0, .AHEAD. ) ;
#158 = ADVANCED_FACE ( 'NONE', ( #145, #111 ), #30, .T. ) ;
#159 = APPLICATION_CONTEXT ( 'configuration controlled 3d designs of mechanical parts and assemblies' ) ;
#160 = ORIENTED_EDGE ( 'NONE', *, *, #37, .T. ) ;
#161 = CLOSED_SHELL ( 'NONE', ( #158, #36, #206, #89 ) ) ;
#162 = CC_DESIGN_APPROVAL ( #219, ( #79 ) ) ;
#163 = DIRECTION ( 'NONE',  ( 4.275831445896958607E-31, 1.000000000000000000, 1.224646799147353207E-16 ) ) ;
#164 = DIRECTION ( 'NONE',  ( 0.0000000000000000000, 1.000000000000000000, 0.0000000000000000000 ) ) ;
#165 = CARTESIAN_POINT ( 'NONE',  ( 6.982962677686239100E-16, -2.435834570415081066E-17, 0.1999999999999992062 ) ) ;
#166 = DIRECTION ( 'NONE',  ( -4.212971753347078429E-31, -1.000000000000000000, -1.219727444046192488E-16 ) ) ;
#167 = PERSON_AND_ORGANIZATION_ROLE ( 'design_supplier' ) ;
#168 = CALENDAR_DATE ( 2021, 17, 11 ) ;
#169 = AXIS2_PLACEMENT_3D ( 'NONE', #194, #40, #60 ) ;
#170 = ORIENTED_EDGE ( 'NONE', *, *, #21, .T. ) ;
#171 = CALENDAR_DATE ( 2021, 17, 11 ) ;
#172 = ORIENTED_EDGE ( 'NONE', *, *, #10, .T. ) ;
#173 = AXIS2_PLACEMENT_3D ( 'NONE', #222, #149, #131 ) ;
#174 = PERSON_AND_ORGANIZATION_ROLE ( 'classification_officer' ) ;
#175 = EDGE_LOOP ( 'NONE', ( #170 ) ) ;
#176 = CC_DESIGN_PERSON_AND_ORGANIZATION_ASSIGNMENT ( #212, #81, ( #136 ) ) ;
#177 = CONICAL_SURFACE ( 'NONE', #76, 8.000000000000000000, 0.7853981633974482790 ) ;
#178 = LOCAL_TIME ( 10, 16, 8.000000000000000000, #69 ) ;
#179 = FACE_OUTER_BOUND ( 'NONE', #6, .T. ) ;
#180 =( GEOMETRIC_REPRESENTATION_CONTEXT ( 3 ) GLOBAL_UNCERTAINTY_ASSIGNED_CONTEXT ( ( #126 ) ) GLOBAL_UNIT_ASSIGNED_CONTEXT ( ( #99, #134, #150 ) ) REPRESENTATION_CONTEXT ( 'NONE', 'WORKASPACE' ) );
#181 = FACE_OUTER_BOUND ( 'NONE', #122, .T. ) ;
#182 = CARTESIAN_POINT ( 'NONE',  ( 1.256933281983528008E-13, -4.408728476930470856E-15, 36.00000000000000000 ) ) ;
#183 = FACE_OUTER_BOUND ( 'NONE', #127, .T. ) ;
#184 = CIRCLE ( 'NONE', #51, 8.000000000000001776 ) ;
#185 = AXIS2_PLACEMENT_3D ( 'NONE', #202, #207, #208 ) ;
#186 = LOCAL_TIME ( 10, 16, 8.000000000000000000, #157 ) ;
#187 = DIRECTION ( 'NONE',  ( -3.491481338843133355E-15, 1.224646799147353207E-16, -1.000000000000000000 ) ) ;
#188 = EDGE_CURVE ( 'NONE', #138, #138, #105, .T. ) ;
#189 = CARTESIAN_POINT ( 'NONE',  ( 0.0000000000000000000, 0.0000000000000000000, 0.0000000000000000000 ) ) ;
#190 = VERTEX_POINT ( 'NONE', #101 ) ;
#191 = ADVANCED_BREP_SHAPE_REPRESENTATION ( '37145', ( #140, #143, #115 ), #180 ) ;
#192 = ORGANIZATION ( 'UNSPECIFIED', 'UNSPECIFIED', '' ) ;
#193 = MECHANICAL_CONTEXT ( 'NONE', #3, 'mechanical' ) ;
#194 = CARTESIAN_POINT ( 'NONE',  ( 3.474023932148917752E-13, -1.218523565151616460E-14, 99.50000000000000000 ) ) ;
#195 = PERSON_AND_ORGANIZATION ( #31, #192 ) ;
#196 = PERSON_AND_ORGANIZATION ( #31, #192 ) ;
#197 = APPROVAL_ROLE ( '' ) ;
#198 = EDGE_LOOP ( 'NONE', ( #85 ) ) ;
#199 = ADVANCED_FACE ( 'NONE', ( #96 ), #47, .F. ) ;
#200 = EDGE_LOOP ( 'NONE', ( #70 ) ) ;
#201 = CC_DESIGN_PERSON_AND_ORGANIZATION_ASSIGNMENT ( #196, #167, ( #119 ) ) ;
#202 = CARTESIAN_POINT ( 'NONE',  ( 1.256933281983528008E-13, 5.999039130647424958E-32, 36.00000000000000000 ) ) ;
#203 = FACE_BOUND ( 'NONE', #175, .T. ) ;
#204 = CIRCLE ( 'NONE', #125, 7.500000000000000000 ) ;
#205 = LOCAL_TIME ( 10, 16, 8.000000000000000000, #68 ) ;
#206 = ADVANCED_FACE ( 'NONE', ( #114, #183 ), #62, .T. ) ;
#207 = DIRECTION ( 'NONE',  ( 3.491481338843133355E-15, -1.224646799147353207E-16, 1.000000000000000000 ) ) ;
#208 = DIRECTION ( 'NONE',  ( -4.275831445896958607E-31, -1.000000000000000000, -1.224646799147353207E-16 ) ) ;
#209 = DATE_AND_TIME ( #54, #26 ) ;
#210 = AXIS2_PLACEMENT_3D ( 'NONE', #75, #130, #163 ) ;
#211 = PERSON_AND_ORGANIZATION ( #31, #192 ) ;
#212 = PERSON_AND_ORGANIZATION ( #31, #192 ) ;
#213 = EDGE_LOOP ( 'NONE', ( #172 ) ) ;
#214 = DATE_TIME_ROLE ( 'classification_date' ) ;
#215 = APPROVAL ( #41, 'UNSPECIFIED' ) ;
#216 = CARTESIAN_POINT ( 'NONE',  ( 3.474023932148917752E-13, 7.999999999999988454, 99.50000000000000000 ) ) ;
#217 = DIRECTION ( 'NONE',  ( 0.0000000000000000000, 1.000000000000000000, 0.0000000000000000000 ) ) ;
#218 = CC_DESIGN_PERSON_AND_ORGANIZATION_ASSIGNMENT ( #67, #174, ( #52 ) ) ;
#219 = APPROVAL ( #154, 'UNSPECIFIED' ) ;
#220 = EDGE_CURVE ( 'NONE', #18, #18, #44, .T. ) ;
#221 = CARTESIAN_POINT ( 'NONE',  ( 1.256933281983528008E-13, -4.408728476930470856E-15, 36.00000000000000000 ) ) ;
#222 = CARTESIAN_POINT ( 'NONE',  ( 3.491481338843133355E-13, 5.624099184981947966E-32, 100.0000000000000000 ) ) ;
#223 = DIRECTION ( 'NONE',  ( -4.212971753347078429E-31, -1.000000000000000000, -1.219727444046192488E-16 ) ) ;
ENDSEC;
END-ISO-10303-21;
