ISO-10303-21;
HEADER;
FILE_DESCRIPTION (( 'STEP AP203' ),
    '1' );
FILE_NAME ('37144.step',
    '2021-11-17T09:16:08',
    ( '' ),
    ( '' ),
    'SwSTEP 2.0',
    'SolidWorks 2019',
    '' );
FILE_SCHEMA (( 'CONFIG_CONTROL_DESIGN' ));
ENDSEC;

DATA;
#1 = CARTESIAN_POINT ( 'NONE',  ( 2.897929511239800811E-13, -1.016456843292303150E-14, 83.00000000000000000 ) ) ;
#2 = DIRECTION ( 'NONE',  ( -3.491481338843133355E-15, 1.224646799147353207E-16, -1.000000000000000000 ) ) ;
#3 = CARTESIAN_POINT ( 'NONE',  ( 2.880472104545584703E-13, -1.010333609296566392E-14, 82.50000000000000000 ) ) ;
#4 =( NAMED_UNIT ( * ) PLANE_ANGLE_UNIT ( ) SI_UNIT ( $, .RADIAN. ) );
#5 = ADVANCED_FACE ( 'NONE', ( #93 ), #141, .T. ) ;
#6 = CARTESIAN_POINT ( 'NONE',  ( -5.783176244037022823E-30, -6.799999999999998934, -1.656367507882261473E-15 ) ) ;
#7 = LOCAL_TIME ( 10, 16, 8.000000000000000000, #22 ) ;
#8 = APPROVAL_PERSON_ORGANIZATION ( #161, #51, #25 ) ;
#9 = EDGE_LOOP ( 'NONE', ( #142 ) ) ;
#10 = CARTESIAN_POINT ( 'NONE',  ( 0.0000000000000000000, 0.0000000000000000000, 0.0000000000000000000 ) ) ;
#11 = DIRECTION ( 'NONE',  ( 4.275831445896958607E-31, 1.000000000000000000, 1.224646799147353207E-16 ) ) ;
#12 = EDGE_CURVE ( 'NONE', #77, #77, #104, .T. ) ;
#13 = DIRECTION ( 'NONE',  ( 3.491481338843133355E-15, -1.224646799147353207E-16, 1.000000000000000000 ) ) ;
#14 = LOCAL_TIME ( 10, 16, 8.000000000000000000, #18 ) ;
#15 = FACE_BOUND ( 'NONE', #155, .T. ) ;
#16 = DIRECTION ( 'NONE',  ( -3.491481338843133355E-15, 1.224646799147353207E-16, -1.000000000000000000 ) ) ;
#17 = DATE_AND_TIME ( #172, #7 ) ;
#18 = COORDINATED_UNIVERSAL_TIME_OFFSET ( 1, 0, .AHEAD. ) ;
#19 = VERTEX_POINT ( 'NONE', #131 ) ;
#20 = DIRECTION ( 'NONE',  ( 1.000000000000000000, 0.0000000000000000000, 0.0000000000000000000 ) ) ;
#21 = ORIENTED_EDGE ( 'NONE', *, *, #12, .F. ) ;
#22 = COORDINATED_UNIVERSAL_TIME_OFFSET ( 1, 0, .AHEAD. ) ;
#23 = ORIENTED_EDGE ( 'NONE', *, *, #12, .T. ) ;
#24 = EDGE_CURVE ( 'NONE', #98, #98, #154, .T. ) ;
#25 = APPROVAL_ROLE ( '' ) ;
#26 = CYLINDRICAL_SURFACE ( 'NONE', #211, 6.999999999999999112 ) ;
#27 = DIRECTION ( 'NONE',  ( 0.0000000000000000000, 1.000000000000000000, 0.0000000000000000000 ) ) ;
#28 = DIRECTION ( 'NONE',  ( 4.275831445896958607E-31, 1.000000000000000000, 1.224646799147353207E-16 ) ) ;
#29 = PERSON ( 'UNSPECIFIED', 'UNSPECIFIED', 'UNSPECIFIED', ('UNSPECIFIED'), ('UNSPECIFIED'), ('UNSPECIFIED') ) ;
#30 = DIRECTION ( 'NONE',  ( 0.0000000000000000000, 1.000000000000000000, 0.0000000000000000000 ) ) ;
#31 = AXIS2_PLACEMENT_3D ( 'NONE', #3, #182, #27 ) ;
#32 = CARTESIAN_POINT ( 'NONE',  ( 9.426999614876460059E-14, -3.306546357697853733E-15, 27.00000000000000000 ) ) ;
#33 = APPROVAL ( #209, 'UNSPECIFIED' ) ;
#34 = APPROVAL_DATE_TIME ( #17, #193 ) ;
#35 = CC_DESIGN_APPROVAL ( #193, ( #45 ) ) ;
#36 = VERTEX_POINT ( 'NONE', #207 ) ;
#37 =( NAMED_UNIT ( * ) SI_UNIT ( $, .STERADIAN. ) SOLID_ANGLE_UNIT ( ) );
#38 = DIRECTION ( 'NONE',  ( -4.264559162571736407E-31, -1.000000000000000000, -1.200366690966094160E-16 ) ) ;
#39 = DIRECTION ( 'NONE',  ( -4.264559162571736407E-31, -1.000000000000000000, -1.200366690966094160E-16 ) ) ;
#40 = CONICAL_SURFACE ( 'NONE', #63, 7.000000000000000000, 0.7853981633974473908 ) ;
#41 = APPLICATION_CONTEXT ( 'configuration controlled 3d designs of mechanical parts and assemblies' ) ;
#42 = DIRECTION ( 'NONE',  ( -4.275831445896958607E-31, -1.000000000000000000, -1.224646799147353207E-16 ) ) ;
#43 = CARTESIAN_POINT ( 'NONE',  ( 6.982962677686243045E-16, -2.435834570415082915E-17, 0.1999999999999993450 ) ) ;
#44 = DIRECTION ( 'NONE',  ( 0.0000000000000000000, 1.000000000000000000, 0.0000000000000000000 ) ) ;
#45 = PRODUCT_DEFINITION ( 'UNKNOWN', '', #59, #173 ) ;
#46 =( LENGTH_UNIT ( ) NAMED_UNIT ( * ) SI_UNIT ( .MILLI., .METRE. ) );
#47 = APPROVAL_STATUS ( 'not_yet_approved' ) ;
#48 = ADVANCED_FACE ( 'NONE', ( #97, #99 ), #170, .T. ) ;
#49 = DATE_TIME_ROLE ( 'creation_date' ) ;
#50 = CIRCLE ( 'NONE', #31, 7.000000000000000000 ) ;
#51 = APPROVAL ( #140, 'UNSPECIFIED' ) ;
#52 = AXIS2_PLACEMENT_3D ( 'NONE', #62, #168, #57 ) ;
#53 = SECURITY_CLASSIFICATION ( '', '', #56 ) ;
#54 = DATE_AND_TIME ( #134, #157 ) ;
#55 = EDGE_LOOP ( 'NONE', ( #21 ) ) ;
#56 = SECURITY_CLASSIFICATION_LEVEL ( 'unclassified' ) ;
#57 = DIRECTION ( 'NONE',  ( 4.275831445896958607E-31, 1.000000000000000000, 1.224646799147353207E-16 ) ) ;
#58 = FACE_OUTER_BOUND ( 'NONE', #177, .T. ) ;
#59 = PRODUCT_DEFINITION_FORMATION_WITH_SPECIFIED_SOURCE ( 'ANY', '', #214, .NOT_KNOWN. ) ;
#60 = FACE_OUTER_BOUND ( 'NONE', #105, .T. ) ;
#61 = ADVANCED_FACE ( 'NONE', ( #15, #129 ), #122, .T. ) ;
#62 = CARTESIAN_POINT ( 'NONE',  ( 0.0000000000000000000, 0.0000000000000000000, 0.0000000000000000000 ) ) ;
#63 = AXIS2_PLACEMENT_3D ( 'NONE', #188, #130, #30 ) ;
#64 = UNCERTAINTY_MEASURE_WITH_UNIT (LENGTH_MEASURE( 1.000000000000000082E-05 ), #46, 'distance_accuracy_value', 'NONE');
#65 = CARTESIAN_POINT ( 'NONE',  ( 2.880472104545584703E-13, 6.999999999999989342, 82.50000000000000000 ) ) ;
#66 = CC_DESIGN_DATE_AND_TIME_ASSIGNMENT ( #198, #78, ( #53 ) ) ;
#67 = APPROVAL_ROLE ( '' ) ;
#68 = APPROVAL_PERSON_ORGANIZATION ( #107, #193, #67 ) ;
#69 = CC_DESIGN_DATE_AND_TIME_ASSIGNMENT ( #54, #49, ( #45 ) ) ;
#70 = PERSON_AND_ORGANIZATION_ROLE ( 'design_owner' ) ;
#71 = ORIENTED_EDGE ( 'NONE', *, *, #204, .F. ) ;
#72 = PERSON_AND_ORGANIZATION ( #29, #167 ) ;
#73 = EDGE_LOOP ( 'NONE', ( #159 ) ) ;
#74 = ORIENTED_EDGE ( 'NONE', *, *, #213, .F. ) ;
#75 = CIRCLE ( 'NONE', #163, 6.799999999999998934 ) ;
#76 = CC_DESIGN_APPROVAL ( #33, ( #59 ) ) ;
#77 = VERTEX_POINT ( 'NONE', #144 ) ;
#78 = DATE_TIME_ROLE ( 'classification_date' ) ;
#79 = DIRECTION ( 'NONE',  ( -3.491481338843133355E-15, 1.224646799147353207E-16, -1.000000000000000000 ) ) ;
#80 = DIRECTION ( 'NONE',  ( 3.491481338843133355E-15, -1.217917285207545432E-16, 1.000000000000000000 ) ) ;
#81 = FACE_OUTER_BOUND ( 'NONE', #194, .T. ) ;
#82 = CARTESIAN_POINT ( 'NONE',  ( 2.897929511239800811E-13, 4.874219293651022994E-32, 83.00000000000000000 ) ) ;
#83 = COORDINATED_UNIVERSAL_TIME_OFFSET ( 1, 0, .AHEAD. ) ;
#84 = AXIS2_PLACEMENT_3D ( 'NONE', #82, #112, #189 ) ;
#85 = CALENDAR_DATE ( 2021, 17, 11 ) ;
#86 = APPLICATION_PROTOCOL_DEFINITION ( 'international standard', 'config_control_design', 1994, #87 ) ;
#87 = APPLICATION_CONTEXT ( 'configuration controlled 3d designs of mechanical parts and assemblies' ) ;
#88 = CC_DESIGN_PERSON_AND_ORGANIZATION_ASSIGNMENT ( #156, #70, ( #214 ) ) ;
#89 = ORIENTED_EDGE ( 'NONE', *, *, #24, .F. ) ;
#90 = ORIENTED_EDGE ( 'NONE', *, *, #213, .T. ) ;
#91 = PERSON_AND_ORGANIZATION ( #29, #167 ) ;
#92 = APPROVAL_PERSON_ORGANIZATION ( #119, #33, #191 ) ;
#93 = FACE_OUTER_BOUND ( 'NONE', #178, .T. ) ;
#94 = DATE_AND_TIME ( #181, #128 ) ;
#95 = DIRECTION ( 'NONE',  ( -3.491481338843133355E-15, 1.224646799147353207E-16, -1.000000000000000000 ) ) ;
#96 = AXIS2_PLACEMENT_3D ( 'NONE', #110, #125, #42 ) ;
#97 = FACE_OUTER_BOUND ( 'NONE', #199, .T. ) ;
#98 = VERTEX_POINT ( 'NONE', #166 ) ;
#99 = FACE_OUTER_BOUND ( 'NONE', #55, .T. ) ;
#100 = DIRECTION ( 'NONE',  ( -4.275831445896958607E-31, -1.000000000000000000, -1.224646799147353207E-16 ) ) ;
#101 =( GEOMETRIC_REPRESENTATION_CONTEXT ( 3 ) GLOBAL_UNCERTAINTY_ASSIGNED_CONTEXT ( ( #64 ) ) GLOBAL_UNIT_ASSIGNED_CONTEXT ( ( #46, #4, #37 ) ) REPRESENTATION_CONTEXT ( 'NONE', 'WORKASPACE' ) );
#102 = PERSON_AND_ORGANIZATION_ROLE ( 'creator' ) ;
#103 = DIRECTION ( 'NONE',  ( 0.0000000000000000000, 0.0000000000000000000, 1.000000000000000000 ) ) ;
#104 = CIRCLE ( 'NONE', #117, 6.999999999999999112 ) ;
#105 = EDGE_LOOP ( 'NONE', ( #180 ) ) ;
#106 = ORIENTED_EDGE ( 'NONE', *, *, #118, .T. ) ;
#107 = PERSON_AND_ORGANIZATION ( #29, #167 ) ;
#108 = AXIS2_PLACEMENT_3D ( 'NONE', #148, #13, #100 ) ;
#109 = CC_DESIGN_PERSON_AND_ORGANIZATION_ASSIGNMENT ( #91, #192, ( #45 ) ) ;
#110 = CARTESIAN_POINT ( 'NONE',  ( 9.426999614876460059E-14, 5.249159239316496154E-32, 27.00000000000000000 ) ) ;
#111 = CARTESIAN_POINT ( 'NONE',  ( -1.496541006063935600E-30, 5.249159239316501627E-32, -4.286263797015736595E-16 ) ) ;
#112 = DIRECTION ( 'NONE',  ( -3.491481338843133355E-15, 1.224646799147353207E-16, -1.000000000000000000 ) ) ;
#113 = PLANE ( 'NONE',  #84 ) ;
#114 = PERSON_AND_ORGANIZATION ( #29, #167 ) ;
#115 = ADVANCED_FACE ( 'NONE', ( #58 ), #206, .T. ) ;
#116 = PERSON_AND_ORGANIZATION_ROLE ( 'design_supplier' ) ;
#117 = AXIS2_PLACEMENT_3D ( 'NONE', #222, #223, #205 ) ;
#118 = EDGE_CURVE ( 'NONE', #158, #158, #75, .T. ) ;
#119 = PERSON_AND_ORGANIZATION ( #29, #167 ) ;
#120 = APPROVAL_DATE_TIME ( #94, #51 ) ;
#121 = CALENDAR_DATE ( 2021, 17, 11 ) ;
#122 = CONICAL_SURFACE ( 'NONE', #202, 7.000000000000000000, 0.7853981633974513876 ) ;
#123 = EDGE_LOOP ( 'NONE', ( #74 ) ) ;
#124 = SHAPE_DEFINITION_REPRESENTATION ( #133, #218 ) ;
#125 = DIRECTION ( 'NONE',  ( 3.491481338843133355E-15, -1.224646799147353207E-16, 1.000000000000000000 ) ) ;
#126 = AXIS2_PLACEMENT_3D ( 'NONE', #171, #103, #20 ) ;
#127 = DIRECTION ( 'NONE',  ( 3.491481338843133355E-15, -1.217917285207545432E-16, 1.000000000000000000 ) ) ;
#128 = LOCAL_TIME ( 10, 16, 8.000000000000000000, #219 ) ;
#129 = FACE_OUTER_BOUND ( 'NONE', #162, .T. ) ;
#130 = DIRECTION ( 'NONE',  ( -3.491481338843133355E-15, 1.224646799147353207E-16, -1.000000000000000000 ) ) ;
#131 = CARTESIAN_POINT ( 'NONE',  ( 2.897929511239800811E-13, 6.499999999999990230, 83.00000000000000000 ) ) ;
#132 = CC_DESIGN_PERSON_AND_ORGANIZATION_ASSIGNMENT ( #72, #197, ( #53 ) ) ;
#133 = PRODUCT_DEFINITION_SHAPE ( 'NONE', 'NONE',  #45 ) ;
#134 = CALENDAR_DATE ( 2021, 17, 11 ) ;
#135 = MANIFOLD_SOLID_BREP ( 'Corps-Déplacer/Copier1[2]', #179 ) ;
#136 = MANIFOLD_SOLID_BREP ( 'Corps-Déplacer/Copier1[1]', #138 ) ;
#137 = APPROVAL_DATE_TIME ( #152, #33 ) ;
#138 = CLOSED_SHELL ( 'NONE', ( #153, #48, #149, #169 ) ) ;
#139 = AXIS2_PLACEMENT_3D ( 'NONE', #32, #16, #165 ) ;
#140 = APPROVAL_STATUS ( 'not_yet_approved' ) ;
#141 = PLANE ( 'NONE',  #108 ) ;
#142 = ORIENTED_EDGE ( 'NONE', *, *, #204, .T. ) ;
#143 = AXIS2_PLACEMENT_3D ( 'NONE', #43, #147, #39 ) ;
#144 = CARTESIAN_POINT ( 'NONE',  ( 9.426999614876460059E-14, 6.999999999999995559, 27.00000000000000000 ) ) ;
#145 = FACE_OUTER_BOUND ( 'NONE', #9, .T. ) ;
#146 = AXIS2_PLACEMENT_3D ( 'NONE', #111, #79, #11 ) ;
#147 = DIRECTION ( 'NONE',  ( 3.491481338843133355E-15, -1.217917285207545432E-16, 1.000000000000000000 ) ) ;
#148 = CARTESIAN_POINT ( 'NONE',  ( 9.426999614876460059E-14, 5.249159239316496154E-32, 27.00000000000000000 ) ) ;
#149 = ADVANCED_FACE ( 'NONE', ( #150, #203 ), #40, .T. ) ;
#150 = FACE_BOUND ( 'NONE', #196, .T. ) ;
#151 = CIRCLE ( 'NONE', #183, 6.500000000000000888 ) ;
#152 = DATE_AND_TIME ( #85, #14 ) ;
#153 = ADVANCED_FACE ( 'NONE', ( #81 ), #164, .F. ) ;
#154 = CIRCLE ( 'NONE', #143, 7.000000000000000000 ) ;
#155 = EDGE_LOOP ( 'NONE', ( #106 ) ) ;
#156 = PERSON_AND_ORGANIZATION ( #29, #167 ) ;
#157 = LOCAL_TIME ( 10, 16, 8.000000000000000000, #83 ) ;
#158 = VERTEX_POINT ( 'NONE', #6 ) ;
#159 = ORIENTED_EDGE ( 'NONE', *, *, #24, .T. ) ;
#160 = EDGE_CURVE ( 'NONE', #19, #19, #151, .T. ) ;
#161 = PERSON_AND_ORGANIZATION ( #29, #167 ) ;
#162 = EDGE_LOOP ( 'NONE', ( #89 ) ) ;
#163 = AXIS2_PLACEMENT_3D ( 'NONE', #201, #127, #185 ) ;
#164 = PLANE ( 'NONE',  #96 ) ;
#165 = DIRECTION ( 'NONE',  ( 0.0000000000000000000, 1.000000000000000000, 0.0000000000000000000 ) ) ;
#166 = CARTESIAN_POINT ( 'NONE',  ( 6.982962677686213462E-16, -7.000000000000000000, 0.1999999999999984845 ) ) ;
#167 = ORGANIZATION ( 'UNSPECIFIED', 'UNSPECIFIED', '' ) ;
#168 = DIRECTION ( 'NONE',  ( -3.491481338843133355E-15, 1.224646799147353207E-16, -1.000000000000000000 ) ) ;
#169 = ADVANCED_FACE ( 'NONE', ( #60 ), #113, .F. ) ;
#170 = CYLINDRICAL_SURFACE ( 'NONE', #52, 6.999999999999999112 ) ;
#171 = CARTESIAN_POINT ( 'NONE',  ( 0.0000000000000000000, 0.0000000000000000000, 0.0000000000000000000 ) ) ;
#172 = CALENDAR_DATE ( 2021, 17, 11 ) ;
#173 = DESIGN_CONTEXT ( 'detailed design', #87, 'design' ) ;
#174 = MECHANICAL_CONTEXT ( 'NONE', #41, 'mechanical' ) ;
#175 = VERTEX_POINT ( 'NONE', #65 ) ;
#176 = CC_DESIGN_PERSON_AND_ORGANIZATION_ASSIGNMENT ( #210, #116, ( #59 ) ) ;
#177 = EDGE_LOOP ( 'NONE', ( #217 ) ) ;
#178 = EDGE_LOOP ( 'NONE', ( #71 ) ) ;
#179 = CLOSED_SHELL ( 'NONE', ( #216, #5, #61, #115 ) ) ;
#180 = ORIENTED_EDGE ( 'NONE', *, *, #160, .F. ) ;
#181 = CALENDAR_DATE ( 2021, 17, 11 ) ;
#182 = DIRECTION ( 'NONE',  ( -3.491481338843133355E-15, 1.224646799147353207E-16, -1.000000000000000000 ) ) ;
#183 = AXIS2_PLACEMENT_3D ( 'NONE', #1, #2, #44 ) ;
#184 = CC_DESIGN_APPROVAL ( #51, ( #53 ) ) ;
#185 = DIRECTION ( 'NONE',  ( -4.252335473556634944E-31, -1.000000000000000000, -1.217917285207545432E-16 ) ) ;
#186 = COORDINATED_UNIVERSAL_TIME_OFFSET ( 1, 0, .AHEAD. ) ;
#187 = FACE_OUTER_BOUND ( 'NONE', #73, .T. ) ;
#188 = CARTESIAN_POINT ( 'NONE',  ( 2.880472104545584703E-13, -1.010333609296566392E-14, 82.50000000000000000 ) ) ;
#189 = DIRECTION ( 'NONE',  ( 4.275831445896958607E-31, 1.000000000000000000, 1.224646799147353207E-16 ) ) ;
#190 = APPLICATION_PROTOCOL_DEFINITION ( 'international standard', 'config_control_design', 1994, #41 ) ;
#191 = APPROVAL_ROLE ( '' ) ;
#192 = PERSON_AND_ORGANIZATION_ROLE ( 'creator' ) ;
#193 = APPROVAL ( #47, 'UNSPECIFIED' ) ;
#194 = EDGE_LOOP ( 'NONE', ( #23 ) ) ;
#195 = PRODUCT_RELATED_PRODUCT_CATEGORY ( 'detail', '', ( #214 ) ) ;
#196 = EDGE_LOOP ( 'NONE', ( #220 ) ) ;
#197 = PERSON_AND_ORGANIZATION_ROLE ( 'classification_officer' ) ;
#198 = DATE_AND_TIME ( #121, #208 ) ;
#199 = EDGE_LOOP ( 'NONE', ( #90 ) ) ;
#200 = CARTESIAN_POINT ( 'NONE',  ( 6.982962677686243045E-16, -2.435834570415082915E-17, 0.1999999999999993450 ) ) ;
#201 = CARTESIAN_POINT ( 'NONE',  ( -2.891588122018511411E-30, 1.008659309252975740E-31, -8.281837539411307363E-16 ) ) ;
#202 = AXIS2_PLACEMENT_3D ( 'NONE', #200, #80, #38 ) ;
#203 = FACE_OUTER_BOUND ( 'NONE', #123, .T. ) ;
#204 = EDGE_CURVE ( 'NONE', #36, #36, #215, .T. ) ;
#205 = DIRECTION ( 'NONE',  ( 0.0000000000000000000, 1.000000000000000000, 0.0000000000000000000 ) ) ;
#206 = PLANE ( 'NONE',  #146 ) ;
#207 = CARTESIAN_POINT ( 'NONE',  ( 9.426999614876460059E-14, 6.999999999999995559, 27.00000000000000000 ) ) ;
#208 = LOCAL_TIME ( 10, 16, 8.000000000000000000, #186 ) ;
#209 = APPROVAL_STATUS ( 'not_yet_approved' ) ;
#210 = PERSON_AND_ORGANIZATION ( #29, #167 ) ;
#211 = AXIS2_PLACEMENT_3D ( 'NONE', #10, #95, #28 ) ;
#212 = CC_DESIGN_SECURITY_CLASSIFICATION ( #53, ( #59 ) ) ;
#213 = EDGE_CURVE ( 'NONE', #175, #175, #50, .T. ) ;
#214 = PRODUCT ( '37144', '37144', '', ( #174 ) ) ;
#215 = CIRCLE ( 'NONE', #139, 6.999999999999999112 ) ;
#216 = ADVANCED_FACE ( 'NONE', ( #145, #187 ), #26, .T. ) ;
#217 = ORIENTED_EDGE ( 'NONE', *, *, #118, .F. ) ;
#218 = ADVANCED_BREP_SHAPE_REPRESENTATION ( '37144', ( #136, #135, #126 ), #101 ) ;
#219 = COORDINATED_UNIVERSAL_TIME_OFFSET ( 1, 0, .AHEAD. ) ;
#220 = ORIENTED_EDGE ( 'NONE', *, *, #160, .T. ) ;
#221 = CC_DESIGN_PERSON_AND_ORGANIZATION_ASSIGNMENT ( #114, #102, ( #59 ) ) ;
#222 = CARTESIAN_POINT ( 'NONE',  ( 9.426999614876460059E-14, -3.306546357697853733E-15, 27.00000000000000000 ) ) ;
#223 = DIRECTION ( 'NONE',  ( -3.491481338843133355E-15, 1.224646799147353207E-16, -1.000000000000000000 ) ) ;
ENDSEC;
END-ISO-10303-21;
