ISO-10303-21;
HEADER;
FILE_DESCRIPTION (( 'STEP AP203' ),
    '1' );
FILE_NAME ('37143.step',
    '2021-11-17T09:16:07',
    ( '' ),
    ( '' ),
    'SwSTEP 2.0',
    'SolidWorks 2019',
    '' );
FILE_SCHEMA (( 'CONFIG_CONTROL_DESIGN' ));
ENDSEC;

DATA;
#1 = APPROVAL_PERSON_ORGANIZATION ( #57, #190, #176 ) ;
#2 = CALENDAR_DATE ( 2021, 17, 11 ) ;
#3 = EDGE_CURVE ( 'NONE', #144, #144, #37, .T. ) ;
#4 = EDGE_LOOP ( 'NONE', ( #38 ) ) ;
#5 = ORIENTED_EDGE ( 'NONE', *, *, #160, .F. ) ;
#6 = FACE_OUTER_BOUND ( 'NONE', #210, .T. ) ;
#7 = ORIENTED_EDGE ( 'NONE', *, *, #121, .T. ) ;
#8 = PLANE ( 'NONE',  #201 ) ;
#9 = VERTEX_POINT ( 'NONE', #125 ) ;
#10 = CARTESIAN_POINT ( 'NONE',  ( 2.880472104545584198E-13, -1.010333609296566392E-14, 82.49999999999998579 ) ) ;
#11 = DIRECTION ( 'NONE',  ( -4.275831445896958607E-31, -1.000000000000000000, -1.224646799147353207E-16 ) ) ;
#12 =( NAMED_UNIT ( * ) SI_UNIT ( $, .STERADIAN. ) SOLID_ANGLE_UNIT ( ) );
#13 = LOCAL_TIME ( 10, 16, 7.000000000000000000, #98 ) ;
#14 = AXIS2_PLACEMENT_3D ( 'NONE', #27, #161, #79 ) ;
#15 = PERSON_AND_ORGANIZATION ( #119, #65 ) ;
#16 = ADVANCED_FACE ( 'NONE', ( #93 ), #215, .T. ) ;
#17 = COORDINATED_UNIVERSAL_TIME_OFFSET ( 1, 0, .AHEAD. ) ;
#18 = LOCAL_TIME ( 10, 16, 7.000000000000000000, #169 ) ;
#19 = APPROVAL_ROLE ( '' ) ;
#20 = CALENDAR_DATE ( 2021, 17, 11 ) ;
#21 = AXIS2_PLACEMENT_3D ( 'NONE', #81, #162, #75 ) ;
#22 = PRODUCT_DEFINITION_SHAPE ( 'NONE', 'NONE',  #51 ) ;
#23 = ORIENTED_EDGE ( 'NONE', *, *, #3, .F. ) ;
#24 = CARTESIAN_POINT ( 'NONE',  ( 8.728703347107833388E-14, 4.499279347985567350E-32, 25.00000000000000000 ) ) ;
#25 = DIRECTION ( 'NONE',  ( -3.491481338843133355E-15, 1.224646799147353207E-16, -1.000000000000000000 ) ) ;
#26 = COORDINATED_UNIVERSAL_TIME_OFFSET ( 1, 0, .AHEAD. ) ;
#27 = CARTESIAN_POINT ( 'NONE',  ( 2.897929511239800811E-13, 4.124339402320093095E-32, 83.00000000000000000 ) ) ;
#28 = ADVANCED_FACE ( 'NONE', ( #113, #199 ), #164, .T. ) ;
#29 = FACE_OUTER_BOUND ( 'NONE', #134, .T. ) ;
#30 = APPROVAL_DATE_TIME ( #33, #73 ) ;
#31 = APPROVAL_STATUS ( 'not_yet_approved' ) ;
#32 = AXIS2_PLACEMENT_3D ( 'NONE', #197, #115, #185 ) ;
#33 = DATE_AND_TIME ( #20, #13 ) ;
#34 = PERSON_AND_ORGANIZATION ( #119, #65 ) ;
#35 = CC_DESIGN_PERSON_AND_ORGANIZATION_ASSIGNMENT ( #50, #97, ( #102 ) ) ;
#36 = DIRECTION ( 'NONE',  ( 4.275831445896959482E-31, 1.000000000000000000, 1.224646799147353207E-16 ) ) ;
#37 = CIRCLE ( 'NONE', #154, 6.000000000000000000 ) ;
#38 = ORIENTED_EDGE ( 'NONE', *, *, #68, .T. ) ;
#39 = ORIENTED_EDGE ( 'NONE', *, *, #170, .T. ) ;
#40 = SECURITY_CLASSIFICATION ( '', '', #183 ) ;
#41 = APPROVAL_STATUS ( 'not_yet_approved' ) ;
#42 = AXIS2_PLACEMENT_3D ( 'NONE', #48, #63, #11 ) ;
#43 = CARTESIAN_POINT ( 'NONE',  ( -4.932709149325696185E-30, -5.799999999999999822, -1.412784050840752682E-15 ) ) ;
#44 = DIRECTION ( 'NONE',  ( 4.275831445896958607E-31, 1.000000000000000000, 1.224646799147353207E-16 ) ) ;
#45 = CC_DESIGN_SECURITY_CLASSIFICATION ( #40, ( #102 ) ) ;
#46 =( LENGTH_UNIT ( ) NAMED_UNIT ( * ) SI_UNIT ( .MILLI., .METRE. ) );
#47 = DIRECTION ( 'NONE',  ( -4.172848212839010723E-31, -1.000000000000000000, -1.219727444046192488E-16 ) ) ;
#48 = CARTESIAN_POINT ( 'NONE',  ( 8.728703347107833388E-14, 4.499279347985567350E-32, 25.00000000000000000 ) ) ;
#49 = CIRCLE ( 'NONE', #203, 6.000000000000000000 ) ;
#50 = PERSON_AND_ORGANIZATION ( #119, #65 ) ;
#51 = PRODUCT_DEFINITION ( 'UNKNOWN', '', #102, #191 ) ;
#52 = ORIENTED_EDGE ( 'NONE', *, *, #121, .F. ) ;
#53 = ADVANCED_FACE ( 'NONE', ( #195 ), #124, .T. ) ;
#54 = CYLINDRICAL_SURFACE ( 'NONE', #116, 6.000000000000000000 ) ;
#55 = AXIS2_PLACEMENT_3D ( 'NONE', #108, #25, #95 ) ;
#56 = APPROVAL ( #223, 'UNSPECIFIED' ) ;
#57 = PERSON_AND_ORGANIZATION ( #119, #65 ) ;
#58 = DIRECTION ( 'NONE',  ( -4.252335473556634944E-31, -1.000000000000000000, -1.217917285207545432E-16 ) ) ;
#59 = CARTESIAN_POINT ( 'NONE',  ( 8.728703347107833388E-14, -3.061616997868383043E-15, 25.00000000000000000 ) ) ;
#60 = DIRECTION ( 'NONE',  ( 4.275831445896959482E-31, 1.000000000000000000, 1.224646799147353207E-16 ) ) ;
#61 = PERSON_AND_ORGANIZATION_ROLE ( 'design_owner' ) ;
#62 = AXIS2_PLACEMENT_3D ( 'NONE', #184, #120, #60 ) ;
#63 = DIRECTION ( 'NONE',  ( 3.491481338843133355E-15, -1.224646799147353207E-16, 1.000000000000000000 ) ) ;
#64 = MANIFOLD_SOLID_BREP ( 'Corps-Déplacer/Copier1[2]', #67 ) ;
#65 = ORGANIZATION ( 'UNSPECIFIED', 'UNSPECIFIED', '' ) ;
#66 = APPROVAL_DATE_TIME ( #146, #56 ) ;
#67 = CLOSED_SHELL ( 'NONE', ( #175, #16, #202, #53 ) ) ;
#68 = EDGE_CURVE ( 'NONE', #9, #9, #122, .T. ) ;
#69 = EDGE_LOOP ( 'NONE', ( #23 ) ) ;
#70 = CC_DESIGN_DATE_AND_TIME_ASSIGNMENT ( #172, #145, ( #40 ) ) ;
#71 = FACE_BOUND ( 'NONE', #177, .T. ) ;
#72 = CLOSED_SHELL ( 'NONE', ( #214, #28, #118, #149 ) ) ;
#73 = APPROVAL ( #31, 'UNSPECIFIED' ) ;
#74 = ORIENTED_EDGE ( 'NONE', *, *, #3, .T. ) ;
#75 = DIRECTION ( 'NONE',  ( 1.000000000000000000, 0.0000000000000000000, 0.0000000000000000000 ) ) ;
#76 = CARTESIAN_POINT ( 'NONE',  ( 8.728703347107833388E-14, -3.061616997868383043E-15, 25.00000000000000000 ) ) ;
#77 = AXIS2_PLACEMENT_3D ( 'NONE', #182, #78, #47 ) ;
#78 = DIRECTION ( 'NONE',  ( 3.491481338843133355E-15, -1.217917285207545432E-16, 1.000000000000000000 ) ) ;
#79 = DIRECTION ( 'NONE',  ( 4.275831445896958607E-31, 1.000000000000000000, 1.224646799147353207E-16 ) ) ;
#80 = VERTEX_POINT ( 'NONE', #106 ) ;
#81 = CARTESIAN_POINT ( 'NONE',  ( 0.0000000000000000000, 0.0000000000000000000, 0.0000000000000000000 ) ) ;
#82 = COORDINATED_UNIVERSAL_TIME_OFFSET ( 1, 0, .AHEAD. ) ;
#83 = PERSON_AND_ORGANIZATION_ROLE ( 'creator' ) ;
#84 = CC_DESIGN_APPROVAL ( #190, ( #51 ) ) ;
#85 = CALENDAR_DATE ( 2021, 17, 11 ) ;
#86 = ADVANCED_BREP_SHAPE_REPRESENTATION ( '37143', ( #132, #64, #21 ), #152 ) ;
#87 = CARTESIAN_POINT ( 'NONE',  ( 2.880472104545584198E-13, -1.010333609296566392E-14, 82.49999999999998579 ) ) ;
#88 = ORIENTED_EDGE ( 'NONE', *, *, #211, .T. ) ;
#89 = CC_DESIGN_PERSON_AND_ORGANIZATION_ASSIGNMENT ( #155, #61, ( #167 ) ) ;
#90 =( NAMED_UNIT ( * ) PLANE_ANGLE_UNIT ( ) SI_UNIT ( $, .RADIAN. ) );
#91 = EDGE_LOOP ( 'NONE', ( #151 ) ) ;
#92 = FACE_BOUND ( 'NONE', #4, .T. ) ;
#93 = FACE_OUTER_BOUND ( 'NONE', #91, .T. ) ;
#94 = PERSON_AND_ORGANIZATION ( #119, #65 ) ;
#95 = DIRECTION ( 'NONE',  ( 0.0000000000000000000, 1.000000000000000000, 0.0000000000000000000 ) ) ;
#96 = PERSON_AND_ORGANIZATION ( #119, #65 ) ;
#97 = PERSON_AND_ORGANIZATION_ROLE ( 'creator' ) ;
#98 = COORDINATED_UNIVERSAL_TIME_OFFSET ( 1, 0, .AHEAD. ) ;
#99 = DATE_AND_TIME ( #204, #18 ) ;
#100 = APPROVAL_PERSON_ORGANIZATION ( #96, #56, #19 ) ;
#101 = EDGE_LOOP ( 'NONE', ( #7 ) ) ;
#102 = PRODUCT_DEFINITION_FORMATION_WITH_SPECIFIED_SOURCE ( 'ANY', '', #167, .NOT_KNOWN. ) ;
#103 = UNCERTAINTY_MEASURE_WITH_UNIT (LENGTH_MEASURE( 1.000000000000000082E-05 ), #46, 'distance_accuracy_value', 'NONE');
#104 = VERTEX_POINT ( 'NONE', #137 ) ;
#105 = AXIS2_PLACEMENT_3D ( 'NONE', #76, #196, #140 ) ;
#106 = CARTESIAN_POINT ( 'NONE',  ( 8.728703347107833388E-14, 5.999999999999996447, 25.00000000000000000 ) ) ;
#107 = CC_DESIGN_APPROVAL ( #73, ( #102 ) ) ;
#108 = CARTESIAN_POINT ( 'NONE',  ( 2.897929511239800811E-13, -1.016456843292303150E-14, 83.00000000000000000 ) ) ;
#109 = AXIS2_PLACEMENT_3D ( 'NONE', #142, #219, #58 ) ;
#110 = CC_DESIGN_DATE_AND_TIME_ASSIGNMENT ( #99, #186, ( #51 ) ) ;
#111 = DIRECTION ( 'NONE',  ( 0.0000000000000000000, 1.000000000000000000, 0.0000000000000000000 ) ) ;
#112 = PERSON_AND_ORGANIZATION_ROLE ( 'classification_officer' ) ;
#113 = FACE_OUTER_BOUND ( 'NONE', #207, .T. ) ;
#114 = APPROVAL_ROLE ( '' ) ;
#115 = DIRECTION ( 'NONE',  ( 3.491481338843133355E-15, -1.217917285207545432E-16, 1.000000000000000000 ) ) ;
#116 = AXIS2_PLACEMENT_3D ( 'NONE', #117, #189, #36 ) ;
#117 = CARTESIAN_POINT ( 'NONE',  ( 0.0000000000000000000, 0.0000000000000000000, 0.0000000000000000000 ) ) ;
#118 = ADVANCED_FACE ( 'NONE', ( #92, #157 ), #206, .T. ) ;
#119 = PERSON ( 'UNSPECIFIED', 'UNSPECIFIED', 'UNSPECIFIED', ('UNSPECIFIED'), ('UNSPECIFIED'), ('UNSPECIFIED') ) ;
#120 = DIRECTION ( 'NONE',  ( -3.491481338843133355E-15, 1.224646799147353207E-16, -1.000000000000000000 ) ) ;
#121 = EDGE_CURVE ( 'NONE', #159, #159, #178, .T. ) ;
#122 = CIRCLE ( 'NONE', #55, 5.500000000000000000 ) ;
#123 = APPROVAL_DATE_TIME ( #218, #190 ) ;
#124 = PLANE ( 'NONE',  #129 ) ;
#125 = CARTESIAN_POINT ( 'NONE',  ( 2.897929511239800811E-13, 5.499999999999989342, 83.00000000000000000 ) ) ;
#126 = CARTESIAN_POINT ( 'NONE',  ( -1.282749433769087757E-30, 4.499279347985572824E-32, -3.673940397442059868E-16 ) ) ;
#127 = LOCAL_TIME ( 10, 16, 7.000000000000000000, #82 ) ;
#128 = FACE_OUTER_BOUND ( 'NONE', #188, .T. ) ;
#129 = AXIS2_PLACEMENT_3D ( 'NONE', #126, #179, #44 ) ;
#130 = CC_DESIGN_PERSON_AND_ORGANIZATION_ASSIGNMENT ( #15, #112, ( #40 ) ) ;
#131 = CIRCLE ( 'NONE', #32, 6.000000000000000000 ) ;
#132 = MANIFOLD_SOLID_BREP ( 'Corps-Déplacer/Copier1[1]', #72 ) ;
#133 = ORIENTED_EDGE ( 'NONE', *, *, #160, .T. ) ;
#134 = EDGE_LOOP ( 'NONE', ( #209 ) ) ;
#135 = FACE_OUTER_BOUND ( 'NONE', #212, .T. ) ;
#136 = ORIENTED_EDGE ( 'NONE', *, *, #170, .F. ) ;
#137 = CARTESIAN_POINT ( 'NONE',  ( 6.982962677686219379E-16, -6.000000000000000000, 0.1999999999999986233 ) ) ;
#138 = LOCAL_TIME ( 10, 16, 7.000000000000000000, #17 ) ;
#139 = DIRECTION ( 'NONE',  ( -4.275831445896958607E-31, -1.000000000000000000, -1.224646799147353207E-16 ) ) ;
#140 = DIRECTION ( 'NONE',  ( 0.0000000000000000000, 1.000000000000000000, 0.0000000000000000000 ) ) ;
#141 = FACE_OUTER_BOUND ( 'NONE', #101, .T. ) ;
#142 = CARTESIAN_POINT ( 'NONE',  ( -2.466354574662848092E-30, 8.603270578922441165E-32, -7.063920254203763409E-16 ) ) ;
#143 = DIRECTION ( 'NONE',  ( 3.491481338843133355E-15, -1.224646799147353207E-16, 1.000000000000000000 ) ) ;
#144 = VERTEX_POINT ( 'NONE', #222 ) ;
#145 = DATE_TIME_ROLE ( 'classification_date' ) ;
#146 = DATE_AND_TIME ( #85, #138 ) ;
#147 = APPLICATION_CONTEXT ( 'configuration controlled 3d designs of mechanical parts and assemblies' ) ;
#148 = CC_DESIGN_PERSON_AND_ORGANIZATION_ASSIGNMENT ( #94, #83, ( #51 ) ) ;
#149 = ADVANCED_FACE ( 'NONE', ( #29 ), #217, .F. ) ;
#150 = DIRECTION ( 'NONE',  ( -3.491481338843133355E-15, 1.224646799147353207E-16, -1.000000000000000000 ) ) ;
#151 = ORIENTED_EDGE ( 'NONE', *, *, #211, .F. ) ;
#152 =( GEOMETRIC_REPRESENTATION_CONTEXT ( 3 ) GLOBAL_UNCERTAINTY_ASSIGNED_CONTEXT ( ( #103 ) ) GLOBAL_UNIT_ASSIGNED_CONTEXT ( ( #46, #90, #12 ) ) REPRESENTATION_CONTEXT ( 'NONE', 'WORKASPACE' ) );
#153 = EDGE_LOOP ( 'NONE', ( #5 ) ) ;
#154 = AXIS2_PLACEMENT_3D ( 'NONE', #87, #150, #111 ) ;
#155 = PERSON_AND_ORGANIZATION ( #119, #65 ) ;
#156 = MECHANICAL_CONTEXT ( 'NONE', #147, 'mechanical' ) ;
#157 = FACE_OUTER_BOUND ( 'NONE', #69, .T. ) ;
#158 = CC_DESIGN_APPROVAL ( #56, ( #40 ) ) ;
#159 = VERTEX_POINT ( 'NONE', #198 ) ;
#160 = EDGE_CURVE ( 'NONE', #216, #216, #171, .T. ) ;
#161 = DIRECTION ( 'NONE',  ( -3.491481338843133355E-15, 1.224646799147353207E-16, -1.000000000000000000 ) ) ;
#162 = DIRECTION ( 'NONE',  ( 0.0000000000000000000, 0.0000000000000000000, 1.000000000000000000 ) ) ;
#163 = DIRECTION ( 'NONE',  ( -3.491481338843133355E-15, 1.224646799147353207E-16, -1.000000000000000000 ) ) ;
#164 = CYLINDRICAL_SURFACE ( 'NONE', #62, 6.000000000000000000 ) ;
#165 = PERSON_AND_ORGANIZATION ( #119, #65 ) ;
#166 = PERSON_AND_ORGANIZATION_ROLE ( 'design_supplier' ) ;
#167 = PRODUCT ( '37143', '37143', '', ( #156 ) ) ;
#168 = APPROVAL_PERSON_ORGANIZATION ( #165, #73, #114 ) ;
#169 = COORDINATED_UNIVERSAL_TIME_OFFSET ( 1, 0, .AHEAD. ) ;
#170 = EDGE_CURVE ( 'NONE', #104, #104, #131, .T. ) ;
#171 = CIRCLE ( 'NONE', #109, 5.799999999999999822 ) ;
#172 = DATE_AND_TIME ( #2, #127 ) ;
#173 = EDGE_LOOP ( 'NONE', ( #52 ) ) ;
#174 = CONICAL_SURFACE ( 'NONE', #77, 6.000000000000000000, 0.7853981633974495002 ) ;
#175 = ADVANCED_FACE ( 'NONE', ( #128, #6 ), #54, .T. ) ;
#176 = APPROVAL_ROLE ( '' ) ;
#177 = EDGE_LOOP ( 'NONE', ( #133 ) ) ;
#178 = CIRCLE ( 'NONE', #105, 6.000000000000000000 ) ;
#179 = DIRECTION ( 'NONE',  ( -3.491481338843133355E-15, 1.224646799147353207E-16, -1.000000000000000000 ) ) ;
#180 = CALENDAR_DATE ( 2021, 17, 11 ) ;
#181 = DIRECTION ( 'NONE',  ( 0.0000000000000000000, 1.000000000000000000, 0.0000000000000000000 ) ) ;
#182 = CARTESIAN_POINT ( 'NONE',  ( 6.982962677686244031E-16, -2.435834570415082915E-17, 0.1999999999999993727 ) ) ;
#183 = SECURITY_CLASSIFICATION_LEVEL ( 'unclassified' ) ;
#184 = CARTESIAN_POINT ( 'NONE',  ( 0.0000000000000000000, 0.0000000000000000000, 0.0000000000000000000 ) ) ;
#185 = DIRECTION ( 'NONE',  ( -4.172848212839010723E-31, -1.000000000000000000, -1.219727444046192488E-16 ) ) ;
#186 = DATE_TIME_ROLE ( 'creation_date' ) ;
#187 = SHAPE_DEFINITION_REPRESENTATION ( #22, #86 ) ;
#188 = EDGE_LOOP ( 'NONE', ( #88 ) ) ;
#189 = DIRECTION ( 'NONE',  ( -3.491481338843133355E-15, 1.224646799147353207E-16, -1.000000000000000000 ) ) ;
#190 = APPROVAL ( #41, 'UNSPECIFIED' ) ;
#191 = DESIGN_CONTEXT ( 'detailed design', #208, 'design' ) ;
#192 = APPLICATION_PROTOCOL_DEFINITION ( 'international standard', 'config_control_design', 1994, #208 ) ;
#193 = PRODUCT_RELATED_PRODUCT_CATEGORY ( 'detail', '', ( #167 ) ) ;
#194 = APPLICATION_PROTOCOL_DEFINITION ( 'international standard', 'config_control_design', 1994, #147 ) ;
#195 = FACE_OUTER_BOUND ( 'NONE', #153, .T. ) ;
#196 = DIRECTION ( 'NONE',  ( -3.491481338843133355E-15, 1.224646799147353207E-16, -1.000000000000000000 ) ) ;
#197 = CARTESIAN_POINT ( 'NONE',  ( 6.982962677686244031E-16, -2.435834570415082915E-17, 0.1999999999999993727 ) ) ;
#198 = CARTESIAN_POINT ( 'NONE',  ( 8.728703347107833388E-14, 5.999999999999996447, 25.00000000000000000 ) ) ;
#199 = FACE_OUTER_BOUND ( 'NONE', #173, .T. ) ;
#200 = AXIS2_PLACEMENT_3D ( 'NONE', #10, #163, #181 ) ;
#201 = AXIS2_PLACEMENT_3D ( 'NONE', #24, #143, #139 ) ;
#202 = ADVANCED_FACE ( 'NONE', ( #71, #135 ), #174, .T. ) ;
#203 = AXIS2_PLACEMENT_3D ( 'NONE', #59, #213, #220 ) ;
#204 = CALENDAR_DATE ( 2021, 17, 11 ) ;
#205 = LOCAL_TIME ( 10, 16, 7.000000000000000000, #26 ) ;
#206 = CONICAL_SURFACE ( 'NONE', #200, 6.000000000000000000, 0.7853981633974344012 ) ;
#207 = EDGE_LOOP ( 'NONE', ( #74 ) ) ;
#208 = APPLICATION_CONTEXT ( 'configuration controlled 3d designs of mechanical parts and assemblies' ) ;
#209 = ORIENTED_EDGE ( 'NONE', *, *, #68, .F. ) ;
#210 = EDGE_LOOP ( 'NONE', ( #39 ) ) ;
#211 = EDGE_CURVE ( 'NONE', #80, #80, #49, .T. ) ;
#212 = EDGE_LOOP ( 'NONE', ( #136 ) ) ;
#213 = DIRECTION ( 'NONE',  ( -3.491481338843133355E-15, 1.224646799147353207E-16, -1.000000000000000000 ) ) ;
#214 = ADVANCED_FACE ( 'NONE', ( #141 ), #8, .F. ) ;
#215 = PLANE ( 'NONE',  #42 ) ;
#216 = VERTEX_POINT ( 'NONE', #43 ) ;
#217 = PLANE ( 'NONE',  #14 ) ;
#218 = DATE_AND_TIME ( #180, #205 ) ;
#219 = DIRECTION ( 'NONE',  ( 3.491481338843133355E-15, -1.217917285207545432E-16, 1.000000000000000000 ) ) ;
#220 = DIRECTION ( 'NONE',  ( 0.0000000000000000000, 1.000000000000000000, 0.0000000000000000000 ) ) ;
#221 = CC_DESIGN_PERSON_AND_ORGANIZATION_ASSIGNMENT ( #34, #166, ( #102 ) ) ;
#222 = CARTESIAN_POINT ( 'NONE',  ( 2.880472104545584198E-13, 5.999999999999989342, 82.49999999999998579 ) ) ;
#223 = APPROVAL_STATUS ( 'not_yet_approved' ) ;
ENDSEC;
END-ISO-10303-21;
