ISO-10303-21;
HEADER;
FILE_DESCRIPTION (( 'STEP AP203' ),
    '1' );
FILE_NAME ('37142.step',
    '2021-11-17T09:16:07',
    ( '' ),
    ( '' ),
    'SwSTEP 2.0',
    'SolidWorks 2019',
    '' );
FILE_SCHEMA (( 'CONFIG_CONTROL_DESIGN' ));
ENDSEC;

DATA;
#1 = DIRECTION ( 'NONE',  ( -3.491481338843133355E-15, 1.224646799147353207E-16, -1.000000000000000000 ) ) ;
#2 = FACE_OUTER_BOUND ( 'NONE', #154, .T. ) ;
#3 = DIRECTION ( 'NONE',  ( 3.491481338843133355E-15, -1.224646799147353207E-16, 1.000000000000000000 ) ) ;
#4 = AXIS2_PLACEMENT_3D ( 'NONE', #79, #107, #63 ) ;
#5 = FACE_OUTER_BOUND ( 'NONE', #172, .T. ) ;
#6 = CARTESIAN_POINT ( 'NONE',  ( 7.681258945454893382E-14, 5.999999999999998224, 22.00000000000000000 ) ) ;
#7 = DIRECTION ( 'NONE',  ( 0.0000000000000000000, 0.0000000000000000000, 1.000000000000000000 ) ) ;
#8 = CYLINDRICAL_SURFACE ( 'NONE', #103, 6.000000000000000000 ) ;
#9 = DIRECTION ( 'NONE',  ( 4.275831445896959482E-31, 1.000000000000000000, 1.224646799147353207E-16 ) ) ;
#10 = APPROVAL_DATE_TIME ( #48, #200 ) ;
#11 = VERTEX_POINT ( 'NONE', #68 ) ;
#12 = PERSON_AND_ORGANIZATION ( #102, #210 ) ;
#13 = AXIS2_PLACEMENT_3D ( 'NONE', #45, #86, #178 ) ;
#14 = APPROVAL_ROLE ( '' ) ;
#15 = ORIENTED_EDGE ( 'NONE', *, *, #255, .F. ) ;
#16 = AXIS2_PLACEMENT_3D ( 'NONE', #25, #183, #20 ) ;
#17 = EDGE_LOOP ( 'NONE', ( #175 ) ) ;
#18 = CALENDAR_DATE ( 2021, 17, 11 ) ;
#19 = EDGE_CURVE ( 'NONE', #46, #46, #150, .T. ) ;
#20 = DIRECTION ( 'NONE',  ( 0.0000000000000000000, 1.000000000000000000, 0.0000000000000000000 ) ) ;
#21 = APPROVAL_PERSON_ORGANIZATION ( #75, #87, #14 ) ;
#22 = DIRECTION ( 'NONE',  ( -3.491481338843133355E-15, 1.224646799147353207E-16, -1.000000000000000000 ) ) ;
#23 = EDGE_CURVE ( 'NONE', #167, #167, #139, .T. ) ;
#24 = FACE_OUTER_BOUND ( 'NONE', #153, .T. ) ;
#25 = CARTESIAN_POINT ( 'NONE',  ( 2.880472104545584198E-13, -1.010333609296566392E-14, 82.49999999999998579 ) ) ;
#26 = APPROVAL_DATE_TIME ( #73, #134 ) ;
#27 = DIRECTION ( 'NONE',  ( -3.491481338843133355E-15, 1.224646799147353207E-16, -1.000000000000000000 ) ) ;
#28 = PERSON_AND_ORGANIZATION ( #102, #210 ) ;
#29 = PERSON_AND_ORGANIZATION ( #102, #210 ) ;
#30 = AXIS2_PLACEMENT_3D ( 'NONE', #251, #190, #71 ) ;
#31 = DATE_AND_TIME ( #212, #132 ) ;
#32 = VERTEX_POINT ( 'NONE', #229 ) ;
#33 = PERSON_AND_ORGANIZATION ( #102, #210 ) ;
#34 = CIRCLE ( 'NONE', #225, 5.500000000000000000 ) ;
#35 = AXIS2_PLACEMENT_3D ( 'NONE', #145, #7, #125 ) ;
#36 = APPROVAL_DATE_TIME ( #193, #87 ) ;
#37 = ADVANCED_FACE ( 'NONE', ( #243, #60 ), #121, .T. ) ;
#38 = ORIENTED_EDGE ( 'NONE', *, *, #49, .T. ) ;
#39 = CIRCLE ( 'NONE', #78, 6.000000000000000888 ) ;
#40 = FACE_BOUND ( 'NONE', #76, .T. ) ;
#41 = CARTESIAN_POINT ( 'NONE',  ( 7.681258945454893382E-14, -2.694222958124176809E-15, 22.00000000000000000 ) ) ;
#42 = DIRECTION ( 'NONE',  ( -3.491481338843133355E-15, 1.224646799147353207E-16, -1.000000000000000000 ) ) ;
#43 = CARTESIAN_POINT ( 'NONE',  ( -2.565498867538175514E-30, 8.998558695971145647E-32, -7.347880794884119736E-16 ) ) ;
#44 = ADVANCED_FACE ( 'NONE', ( #108, #106 ), #105, .F. ) ;
#45 = CARTESIAN_POINT ( 'NONE',  ( 7.681258945454893382E-14, 4.499279347985570087E-32, 22.00000000000000000 ) ) ;
#46 = VERTEX_POINT ( 'NONE', #148 ) ;
#47 = VERTEX_POINT ( 'NONE', #224 ) ;
#48 = DATE_AND_TIME ( #188, #176 ) ;
#49 = EDGE_CURVE ( 'NONE', #32, #32, #72, .T. ) ;
#50 = APPROVAL_ROLE ( '' ) ;
#51 = AXIS2_PLACEMENT_3D ( 'NONE', #263, #22, #162 ) ;
#52 = APPLICATION_PROTOCOL_DEFINITION ( 'international standard', 'config_control_design', 1994, #82 ) ;
#53 = ORIENTED_EDGE ( 'NONE', *, *, #231, .T. ) ;
#54 = ADVANCED_BREP_SHAPE_REPRESENTATION ( '37142', ( #77, #253, #35 ), #209 ) ;
#55 = ORIENTED_EDGE ( 'NONE', *, *, #23, .T. ) ;
#56 = CIRCLE ( 'NONE', #259, 5.500000000000000000 ) ;
#57 = EDGE_LOOP ( 'NONE', ( #62 ) ) ;
#58 = FACE_OUTER_BOUND ( 'NONE', #152, .T. ) ;
#59 = DIRECTION ( 'NONE',  ( 4.275831445896958607E-31, 1.000000000000000000, 1.224646799147353207E-16 ) ) ;
#60 = FACE_BOUND ( 'NONE', #173, .T. ) ;
#61 = ADVANCED_FACE ( 'NONE', ( #5 ), #223, .T. ) ;
#62 = ORIENTED_EDGE ( 'NONE', *, *, #80, .F. ) ;
#63 = DIRECTION ( 'NONE',  ( 4.275831445896958607E-31, 1.000000000000000000, 1.224646799147353207E-16 ) ) ;
#64 = ADVANCED_FACE ( 'NONE', ( #241 ), #180, .T. ) ;
#65 = CIRCLE ( 'NONE', #110, 6.000000000000000888 ) ;
#66 = DIRECTION ( 'NONE',  ( -4.202028969572151271E-31, -1.000000000000000000, -1.232047923278982199E-16 ) ) ;
#67 = LOCAL_TIME ( 10, 16, 7.000000000000000000, #123 ) ;
#68 = CARTESIAN_POINT ( 'NONE',  ( 2.880472104545584198E-13, 5.999999999999989342, 82.49999999999998579 ) ) ;
#69 = PRODUCT_DEFINITION_SHAPE ( 'NONE', 'NONE',  #250 ) ;
#70 = ADVANCED_FACE ( 'NONE', ( #137, #2 ), #156, .T. ) ;
#71 = DIRECTION ( 'NONE',  ( 0.0000000000000000000, 1.000000000000000000, 0.0000000000000000000 ) ) ;
#72 = CIRCLE ( 'NONE', #119, 6.000000000000000000 ) ;
#73 = DATE_AND_TIME ( #114, #74 ) ;
#74 = LOCAL_TIME ( 10, 16, 7.000000000000000000, #208 ) ;
#75 = PERSON_AND_ORGANIZATION ( #102, #210 ) ;
#76 = EDGE_LOOP ( 'NONE', ( #55 ) ) ;
#77 = MANIFOLD_SOLID_BREP ( 'Corps-Déplacer/Copier1[1]', #236 ) ;
#78 = AXIS2_PLACEMENT_3D ( 'NONE', #41, #138, #201 ) ;
#79 = CARTESIAN_POINT ( 'NONE',  ( -1.282749433769087757E-30, 4.499279347985572824E-32, -3.673940397442059868E-16 ) ) ;
#80 = EDGE_CURVE ( 'NONE', #95, #95, #34, .T. ) ;
#81 = CARTESIAN_POINT ( 'NONE',  ( 6.982962677686252905E-16, -2.435834570415085996E-17, 0.1999999999999995948 ) ) ;
#82 = APPLICATION_CONTEXT ( 'configuration controlled 3d designs of mechanical parts and assemblies' ) ;
#83 = DIRECTION ( 'NONE',  ( -4.275831445896958607E-31, -1.000000000000000000, -1.224646799147353207E-16 ) ) ;
#84 = PRODUCT_DEFINITION_FORMATION_WITH_SPECIFIED_SOURCE ( 'ANY', '', #142, .NOT_KNOWN. ) ;
#85 = UNCERTAINTY_MEASURE_WITH_UNIT (LENGTH_MEASURE( 1.000000000000000082E-05 ), #247, 'distance_accuracy_value', 'NONE');
#86 = DIRECTION ( 'NONE',  ( 3.491481338843133355E-15, -1.224646799147353207E-16, 1.000000000000000000 ) ) ;
#87 = APPROVAL ( #217, 'UNSPECIFIED' ) ;
#88 = FACE_OUTER_BOUND ( 'NONE', #133, .T. ) ;
#89 = PERSON_AND_ORGANIZATION_ROLE ( 'creator' ) ;
#90 = DIRECTION ( 'NONE',  ( 0.0000000000000000000, 1.000000000000000000, 0.0000000000000000000 ) ) ;
#91 = PERSON_AND_ORGANIZATION_ROLE ( 'creator' ) ;
#92 = CC_DESIGN_PERSON_AND_ORGANIZATION_ASSIGNMENT ( #127, #91, ( #84 ) ) ;
#93 = PERSON_AND_ORGANIZATION ( #102, #210 ) ;
#94 = EDGE_CURVE ( 'NONE', #187, #187, #39, .T. ) ;
#95 = VERTEX_POINT ( 'NONE', #115 ) ;
#96 = AXIS2_PLACEMENT_3D ( 'NONE', #157, #42, #59 ) ;
#97 = APPLICATION_PROTOCOL_DEFINITION ( 'international standard', 'config_control_design', 1994, #169 ) ;
#98 = ORIENTED_EDGE ( 'NONE', *, *, #248, .T. ) ;
#99 = COORDINATED_UNIVERSAL_TIME_OFFSET ( 1, 0, .AHEAD. ) ;
#100 = ORIENTED_EDGE ( 'NONE', *, *, #23, .F. ) ;
#101 = CARTESIAN_POINT ( 'NONE',  ( 0.0000000000000000000, 0.0000000000000000000, 0.0000000000000000000 ) ) ;
#102 = PERSON ( 'UNSPECIFIED', 'UNSPECIFIED', 'UNSPECIFIED', ('UNSPECIFIED'), ('UNSPECIFIED'), ('UNSPECIFIED') ) ;
#103 = AXIS2_PLACEMENT_3D ( 'NONE', #205, #27, #9 ) ;
#104 = SECURITY_CLASSIFICATION ( '', '', #113 ) ;
#105 = CYLINDRICAL_SURFACE ( 'NONE', #198, 5.500000000000000000 ) ;
#106 = FACE_OUTER_BOUND ( 'NONE', #57, .T. ) ;
#107 = DIRECTION ( 'NONE',  ( -3.491481338843133355E-15, 1.224646799147353207E-16, -1.000000000000000000 ) ) ;
#108 = FACE_OUTER_BOUND ( 'NONE', #118, .T. ) ;
#109 = DIRECTION ( 'NONE',  ( -3.491481338843133355E-15, 1.224646799147353207E-16, -1.000000000000000000 ) ) ;
#110 = AXIS2_PLACEMENT_3D ( 'NONE', #256, #128, #90 ) ;
#111 = CC_DESIGN_PERSON_AND_ORGANIZATION_ASSIGNMENT ( #12, #89, ( #250 ) ) ;
#112 = CC_DESIGN_APPROVAL ( #87, ( #104 ) ) ;
#113 = SECURITY_CLASSIFICATION_LEVEL ( 'unclassified' ) ;
#114 = CALENDAR_DATE ( 2021, 17, 11 ) ;
#115 = CARTESIAN_POINT ( 'NONE',  ( -4.677569020912297913E-30, -5.500000000000000000, -1.339709013728300025E-15 ) ) ;
#116 = APPROVAL_STATUS ( 'not_yet_approved' ) ;
#117 = DIRECTION ( 'NONE',  ( -4.202028969572151271E-31, -1.000000000000000000, -1.232047923278982199E-16 ) ) ;
#118 = EDGE_LOOP ( 'NONE', ( #130 ) ) ;
#119 = AXIS2_PLACEMENT_3D ( 'NONE', #43, #1, #158 ) ;
#120 = DIRECTION ( 'NONE',  ( 3.491481338843133355E-15, -1.217917285207545432E-16, 1.000000000000000000 ) ) ;
#121 = PLANE ( 'NONE',  #4 ) ;
#122 = CARTESIAN_POINT ( 'NONE',  ( 7.681258945454893382E-14, 4.499279347985570087E-32, 22.00000000000000000 ) ) ;
#123 = COORDINATED_UNIVERSAL_TIME_OFFSET ( 1, 0, .AHEAD. ) ;
#124 = ADVANCED_FACE ( 'NONE', ( #24 ), #182, .F. ) ;
#125 = DIRECTION ( 'NONE',  ( 1.000000000000000000, 0.0000000000000000000, 0.0000000000000000000 ) ) ;
#126 = DATE_TIME_ROLE ( 'creation_date' ) ;
#127 = PERSON_AND_ORGANIZATION ( #102, #210 ) ;
#128 = DIRECTION ( 'NONE',  ( -3.491481338843133355E-15, 1.224646799147353207E-16, -1.000000000000000000 ) ) ;
#129 = EDGE_LOOP ( 'NONE', ( #38 ) ) ;
#130 = ORIENTED_EDGE ( 'NONE', *, *, #255, .T. ) ;
#131 = CONICAL_SURFACE ( 'NONE', #16, 6.000000000000000000, 0.7853981633974344012 ) ;
#132 = LOCAL_TIME ( 10, 16, 7.000000000000000000, #230 ) ;
#133 = EDGE_LOOP ( 'NONE', ( #100 ) ) ;
#134 = APPROVAL ( #204, 'UNSPECIFIED' ) ;
#135 = APPROVAL_PERSON_ORGANIZATION ( #257, #134, #149 ) ;
#136 = FACE_OUTER_BOUND ( 'NONE', #194, .T. ) ;
#137 = FACE_BOUND ( 'NONE', #216, .T. ) ;
#138 = DIRECTION ( 'NONE',  ( -3.491481338843133355E-15, 1.224646799147353207E-16, -1.000000000000000000 ) ) ;
#139 = CIRCLE ( 'NONE', #51, 5.500000000000000000 ) ;
#140 = DIRECTION ( 'NONE',  ( 3.491481338843133355E-15, -1.217917285207545432E-16, 1.000000000000000000 ) ) ;
#141 = CARTESIAN_POINT ( 'NONE',  ( 0.0000000000000000000, 0.0000000000000000000, 0.0000000000000000000 ) ) ;
#142 = PRODUCT ( '37142', '37142', '', ( #228 ) ) ;
#143 = ADVANCED_FACE ( 'NONE', ( #40, #202 ), #131, .T. ) ;
#144 = AXIS2_PLACEMENT_3D ( 'NONE', #81, #222, #117 ) ;
#145 = CARTESIAN_POINT ( 'NONE',  ( 0.0000000000000000000, 0.0000000000000000000, 0.0000000000000000000 ) ) ;
#146 = CC_DESIGN_PERSON_AND_ORGANIZATION_ASSIGNMENT ( #33, #191, ( #142 ) ) ;
#147 = COORDINATED_UNIVERSAL_TIME_OFFSET ( 1, 0, .AHEAD. ) ;
#148 = CARTESIAN_POINT ( 'NONE',  ( -4.507475601970031464E-30, -5.299999999999998046, -1.290992322319997794E-15 ) ) ;
#149 = APPROVAL_ROLE ( '' ) ;
#150 = CIRCLE ( 'NONE', #160, 5.299999999999998046 ) ;
#151 =( NAMED_UNIT ( * ) PLANE_ANGLE_UNIT ( ) SI_UNIT ( $, .RADIAN. ) );
#152 = EDGE_LOOP ( 'NONE', ( #98 ) ) ;
#153 = EDGE_LOOP ( 'NONE', ( #53 ) ) ;
#154 = EDGE_LOOP ( 'NONE', ( #15 ) ) ;
#155 = EDGE_LOOP ( 'NONE', ( #239 ) ) ;
#156 = CONICAL_SURFACE ( 'NONE', #144, 5.500000000000000000, 0.7853981633974511656 ) ;
#157 = CARTESIAN_POINT ( 'NONE',  ( -1.282749433769087757E-30, 4.499279347985572824E-32, -3.673940397442059868E-16 ) ) ;
#158 = DIRECTION ( 'NONE',  ( 4.275831445896959482E-31, 1.000000000000000000, 1.224646799147353207E-16 ) ) ;
#159 = CARTESIAN_POINT ( 'NONE',  ( -2.338784510456149307E-30, 8.158273824840245857E-32, -6.698545068641500125E-16 ) ) ;
#160 = AXIS2_PLACEMENT_3D ( 'NONE', #242, #120, #197 ) ;
#161 = CC_DESIGN_DATE_AND_TIME_ASSIGNMENT ( #31, #189, ( #104 ) ) ;
#162 = DIRECTION ( 'NONE',  ( 0.0000000000000000000, 1.000000000000000000, 0.0000000000000000000 ) ) ;
#163 = CARTESIAN_POINT ( 'NONE',  ( 6.982962677686252905E-16, -2.435834570415085996E-17, 0.1999999999999995948 ) ) ;
#164 = CALENDAR_DATE ( 2021, 17, 11 ) ;
#165 = LOCAL_TIME ( 10, 16, 7.000000000000000000, #99 ) ;
#166 = DIRECTION ( 'NONE',  ( -3.491481338843133355E-15, 1.224646799147353207E-16, -1.000000000000000000 ) ) ;
#167 = VERTEX_POINT ( 'NONE', #213 ) ;
#168 = VERTEX_POINT ( 'NONE', #186 ) ;
#169 = APPLICATION_CONTEXT ( 'configuration controlled 3d designs of mechanical parts and assemblies' ) ;
#170 = CC_DESIGN_APPROVAL ( #200, ( #250 ) ) ;
#171 = DATE_AND_TIME ( #164, #67 ) ;
#172 = EDGE_LOOP ( 'NONE', ( #234 ) ) ;
#173 = EDGE_LOOP ( 'NONE', ( #199 ) ) ;
#174 = SHAPE_DEFINITION_REPRESENTATION ( #69, #54 ) ;
#175 = ORIENTED_EDGE ( 'NONE', *, *, #248, .F. ) ;
#176 = LOCAL_TIME ( 10, 16, 7.000000000000000000, #147 ) ;
#177 = ORIENTED_EDGE ( 'NONE', *, *, #94, .F. ) ;
#178 = DIRECTION ( 'NONE',  ( -4.275831445896958607E-31, -1.000000000000000000, -1.224646799147353207E-16 ) ) ;
#179 = ORIENTED_EDGE ( 'NONE', *, *, #19, .T. ) ;
#180 = PLANE ( 'NONE',  #13 ) ;
#181 = CC_DESIGN_DATE_AND_TIME_ASSIGNMENT ( #171, #126, ( #250 ) ) ;
#182 = PLANE ( 'NONE',  #214 ) ;
#183 = DIRECTION ( 'NONE',  ( -3.491481338843133355E-15, 1.224646799147353207E-16, -1.000000000000000000 ) ) ;
#184 = ADVANCED_FACE ( 'NONE', ( #58, #136 ), #219, .T. ) ;
#185 = DIRECTION ( 'NONE',  ( 4.275831445896959482E-31, 1.000000000000000000, 1.224646799147353207E-16 ) ) ;
#186 = CARTESIAN_POINT ( 'NONE',  ( 6.982962677686230226E-16, -5.500000000000000000, 0.1999999999999989286 ) ) ;
#187 = VERTEX_POINT ( 'NONE', #6 ) ;
#188 = CALENDAR_DATE ( 2021, 17, 11 ) ;
#189 = DATE_TIME_ROLE ( 'classification_date' ) ;
#190 = DIRECTION ( 'NONE',  ( -3.491481338843133355E-15, 1.224646799147353207E-16, -1.000000000000000000 ) ) ;
#191 = PERSON_AND_ORGANIZATION_ROLE ( 'design_owner' ) ;
#192 = ADVANCED_FACE ( 'NONE', ( #245, #226 ), #8, .T. ) ;
#193 = DATE_AND_TIME ( #18, #165 ) ;
#194 = EDGE_LOOP ( 'NONE', ( #221 ) ) ;
#195 = CLOSED_SHELL ( 'NONE', ( #37, #192, #64, #44, #70, #61 ) ) ;
#196 = DIRECTION ( 'NONE',  ( -4.252335473556634068E-31, -1.000000000000000000, -1.217917285207545432E-16 ) ) ;
#197 = DIRECTION ( 'NONE',  ( -4.252335473556634068E-31, -1.000000000000000000, -1.217917285207545432E-16 ) ) ;
#198 = AXIS2_PLACEMENT_3D ( 'NONE', #141, #140, #196 ) ;
#199 = ORIENTED_EDGE ( 'NONE', *, *, #80, .T. ) ;
#200 = APPROVAL ( #116, 'UNSPECIFIED' ) ;
#201 = DIRECTION ( 'NONE',  ( 0.0000000000000000000, 1.000000000000000000, 0.0000000000000000000 ) ) ;
#202 = FACE_OUTER_BOUND ( 'NONE', #17, .T. ) ;
#203 = AXIS2_PLACEMENT_3D ( 'NONE', #101, #109, #185 ) ;
#204 = APPROVAL_STATUS ( 'not_yet_approved' ) ;
#205 = CARTESIAN_POINT ( 'NONE',  ( 0.0000000000000000000, 0.0000000000000000000, 0.0000000000000000000 ) ) ;
#206 = DIRECTION ( 'NONE',  ( 4.275831445896958607E-31, 1.000000000000000000, 1.224646799147353207E-16 ) ) ;
#207 = PERSON_AND_ORGANIZATION_ROLE ( 'design_supplier' ) ;
#208 = COORDINATED_UNIVERSAL_TIME_OFFSET ( 1, 0, .AHEAD. ) ;
#209 =( GEOMETRIC_REPRESENTATION_CONTEXT ( 3 ) GLOBAL_UNCERTAINTY_ASSIGNED_CONTEXT ( ( #85 ) ) GLOBAL_UNIT_ASSIGNED_CONTEXT ( ( #247, #151, #232 ) ) REPRESENTATION_CONTEXT ( 'NONE', 'WORKASPACE' ) );
#210 = ORGANIZATION ( 'UNSPECIFIED', 'UNSPECIFIED', '' ) ;
#211 = CC_DESIGN_PERSON_AND_ORGANIZATION_ASSIGNMENT ( #28, #252, ( #104 ) ) ;
#212 = CALENDAR_DATE ( 2021, 17, 11 ) ;
#213 = CARTESIAN_POINT ( 'NONE',  ( 2.897929511239800811E-13, 5.499999999999989342, 83.00000000000000000 ) ) ;
#214 = AXIS2_PLACEMENT_3D ( 'NONE', #122, #3, #83 ) ;
#215 = CC_DESIGN_APPROVAL ( #134, ( #84 ) ) ;
#216 = EDGE_LOOP ( 'NONE', ( #179 ) ) ;
#217 = APPROVAL_STATUS ( 'not_yet_approved' ) ;
#218 = CIRCLE ( 'NONE', #30, 6.000000000000000000 ) ;
#219 = CYLINDRICAL_SURFACE ( 'NONE', #203, 6.000000000000000000 ) ;
#220 = DIRECTION ( 'NONE',  ( 3.491481338843133355E-15, -1.217917285207545432E-16, 1.000000000000000000 ) ) ;
#221 = ORIENTED_EDGE ( 'NONE', *, *, #231, .F. ) ;
#222 = DIRECTION ( 'NONE',  ( 3.491481338843133355E-15, -1.217917285207545432E-16, 1.000000000000000000 ) ) ;
#223 = PLANE ( 'NONE',  #96 ) ;
#224 = CARTESIAN_POINT ( 'NONE',  ( 7.681258945454893382E-14, 5.999999999999998224, 22.00000000000000000 ) ) ;
#225 = AXIS2_PLACEMENT_3D ( 'NONE', #159, #220, #238 ) ;
#226 = FACE_OUTER_BOUND ( 'NONE', #237, .T. ) ;
#227 = PLANE ( 'NONE',  #249 ) ;
#228 = MECHANICAL_CONTEXT ( 'NONE', #82, 'mechanical' ) ;
#229 = CARTESIAN_POINT ( 'NONE',  ( 0.0000000000000000000, 6.000000000000000000, 0.0000000000000000000 ) ) ;
#230 = COORDINATED_UNIVERSAL_TIME_OFFSET ( 1, 0, .AHEAD. ) ;
#231 = EDGE_CURVE ( 'NONE', #47, #47, #65, .T. ) ;
#232 =( NAMED_UNIT ( * ) SI_UNIT ( $, .STERADIAN. ) SOLID_ANGLE_UNIT ( ) );
#233 = CARTESIAN_POINT ( 'NONE',  ( 2.897929511239800811E-13, 4.124339402320093095E-32, 83.00000000000000000 ) ) ;
#234 = ORIENTED_EDGE ( 'NONE', *, *, #19, .F. ) ;
#235 = PRODUCT_RELATED_PRODUCT_CATEGORY ( 'detail', '', ( #142 ) ) ;
#236 = CLOSED_SHELL ( 'NONE', ( #124, #184, #143, #240 ) ) ;
#237 = EDGE_LOOP ( 'NONE', ( #258 ) ) ;
#238 = DIRECTION ( 'NONE',  ( -4.252335473556634068E-31, -1.000000000000000000, -1.217917285207545432E-16 ) ) ;
#239 = ORIENTED_EDGE ( 'NONE', *, *, #94, .T. ) ;
#240 = ADVANCED_FACE ( 'NONE', ( #88 ), #227, .F. ) ;
#241 = FACE_OUTER_BOUND ( 'NONE', #262, .T. ) ;
#242 = CARTESIAN_POINT ( 'NONE',  ( -2.253737800985016082E-30, 7.861609322118780859E-32, -6.454961611599988968E-16 ) ) ;
#243 = FACE_OUTER_BOUND ( 'NONE', #129, .T. ) ;
#244 = DESIGN_CONTEXT ( 'detailed design', #169, 'design' ) ;
#245 = FACE_OUTER_BOUND ( 'NONE', #155, .T. ) ;
#246 = DIRECTION ( 'NONE',  ( 3.491481338843133355E-15, -1.217917285207545432E-16, 1.000000000000000000 ) ) ;
#247 =( LENGTH_UNIT ( ) NAMED_UNIT ( * ) SI_UNIT ( .MILLI., .METRE. ) );
#248 = EDGE_CURVE ( 'NONE', #11, #11, #218, .T. ) ;
#249 = AXIS2_PLACEMENT_3D ( 'NONE', #233, #166, #206 ) ;
#250 = PRODUCT_DEFINITION ( 'UNKNOWN', '', #84, #244 ) ;
#251 = CARTESIAN_POINT ( 'NONE',  ( 2.880472104545584198E-13, -1.010333609296566392E-14, 82.49999999999998579 ) ) ;
#252 = PERSON_AND_ORGANIZATION_ROLE ( 'classification_officer' ) ;
#253 = MANIFOLD_SOLID_BREP ( 'Corps-Déplacer/Copier1[2]', #195 ) ;
#254 = APPROVAL_PERSON_ORGANIZATION ( #93, #200, #50 ) ;
#255 = EDGE_CURVE ( 'NONE', #168, #168, #56, .T. ) ;
#256 = CARTESIAN_POINT ( 'NONE',  ( 7.681258945454893382E-14, -2.694222958124176809E-15, 22.00000000000000000 ) ) ;
#257 = PERSON_AND_ORGANIZATION ( #102, #210 ) ;
#258 = ORIENTED_EDGE ( 'NONE', *, *, #49, .F. ) ;
#259 = AXIS2_PLACEMENT_3D ( 'NONE', #163, #246, #66 ) ;
#260 = CC_DESIGN_SECURITY_CLASSIFICATION ( #104, ( #84 ) ) ;
#261 = CC_DESIGN_PERSON_AND_ORGANIZATION_ASSIGNMENT ( #29, #207, ( #84 ) ) ;
#262 = EDGE_LOOP ( 'NONE', ( #177 ) ) ;
#263 = CARTESIAN_POINT ( 'NONE',  ( 2.897929511239800811E-13, -1.016456843292303150E-14, 83.00000000000000000 ) ) ;
ENDSEC;
END-ISO-10303-21;
