ISO-10303-21;
HEADER;
FILE_DESCRIPTION (( 'STEP AP203' ),
    '1' );
FILE_NAME ('37138.step',
    '2021-11-17T09:16:06',
    ( '' ),
    ( '' ),
    'SwSTEP 2.0',
    'SolidWorks 2019',
    '' );
FILE_SCHEMA (( 'CONFIG_CONTROL_DESIGN' ));
ENDSEC;

DATA;
#1 = CARTESIAN_POINT ( 'NONE',  ( -8.551662891793915461E-31, 2.999519565323715216E-32, -2.449293598294706414E-16 ) ) ;
#2 = ORIENTED_EDGE ( 'NONE', *, *, #233, .F. ) ;
#3 = FACE_OUTER_BOUND ( 'NONE', #39, .T. ) ;
#4 = CONICAL_SURFACE ( 'NONE', #191, 3.500000000000000000, 0.7853981633974504994 ) ;
#5 = DIRECTION ( 'NONE',  ( -4.126992737972647881E-31, -1.000000000000000000, -1.239088197126290817E-16 ) ) ;
#6 = ORIENTED_EDGE ( 'NONE', *, *, #83, .F. ) ;
#7 = VERTEX_POINT ( 'NONE', #46 ) ;
#8 = DIRECTION ( 'NONE',  ( -3.491481338843133355E-15, 1.224646799147353207E-16, -1.000000000000000000 ) ) ;
#9 = AXIS2_PLACEMENT_3D ( 'NONE', #197, #140, #234 ) ;
#10 = LOCAL_TIME ( 10, 16, 6.000000000000000000, #181 ) ;
#11 = DIRECTION ( 'NONE',  ( 0.0000000000000000000, 1.000000000000000000, 0.0000000000000000000 ) ) ;
#12 = ADVANCED_BREP_SHAPE_REPRESENTATION ( '37138', ( #154, #70, #214 ), #204 ) ;
#13 = FACE_BOUND ( 'NONE', #163, .T. ) ;
#14 = AXIS2_PLACEMENT_3D ( 'NONE', #1, #114, #96 ) ;
#15 = APPROVAL_DATE_TIME ( #144, #20 ) ;
#16 = DATE_AND_TIME ( #178, #90 ) ;
#17 = COORDINATED_UNIVERSAL_TIME_OFFSET ( 1, 0, .AHEAD. ) ;
#18 = APPROVAL_ROLE ( '' ) ;
#19 = EDGE_LOOP ( 'NONE', ( #88 ) ) ;
#20 = APPROVAL ( #218, 'UNSPECIFIED' ) ;
#21 = FACE_OUTER_BOUND ( 'NONE', #187, .T. ) ;
#22 = FACE_OUTER_BOUND ( 'NONE', #75, .T. ) ;
#23 = TOROIDAL_SURFACE ( 'NONE', #81, 11.49999999999999822, 8.000000000000000000 ) ;
#24 = DIRECTION ( 'NONE',  ( 3.491481338843133355E-15, -0.0000000000000000000, 1.000000000000000000 ) ) ;
#25 = ADVANCED_FACE ( 'NONE', ( #152, #93 ), #108, .T. ) ;
#26 = ORIENTED_EDGE ( 'NONE', *, *, #236, .F. ) ;
#27 = CARTESIAN_POINT ( 'NONE',  ( 6.982962677686254878E-16, -2.435834570415086612E-17, 0.1999999999999996503 ) ) ;
#28 = PRODUCT_DEFINITION_FORMATION_WITH_SPECIFIED_SOURCE ( 'ANY', '', #200, .NOT_KNOWN. ) ;
#29 = DIRECTION ( 'NONE',  ( 3.491481338843133355E-15, -0.0000000000000000000, 1.000000000000000000 ) ) ;
#30 =( NAMED_UNIT ( * ) PLANE_ANGLE_UNIT ( ) SI_UNIT ( $, .RADIAN. ) );
#31 = CIRCLE ( 'NONE', #9, 4.000000000000000888 ) ;
#32 = PERSON ( 'UNSPECIFIED', 'UNSPECIFIED', 'UNSPECIFIED', ('UNSPECIFIED'), ('UNSPECIFIED'), ('UNSPECIFIED') ) ;
#33 = PERSON_AND_ORGANIZATION_ROLE ( 'classification_officer' ) ;
#34 = APPROVAL_STATUS ( 'not_yet_approved' ) ;
#35 = ADVANCED_FACE ( 'NONE', ( #111, #22 ), #74, .T. ) ;
#36 = PERSON_AND_ORGANIZATION_ROLE ( 'design_owner' ) ;
#37 = EDGE_LOOP ( 'NONE', ( #207 ) ) ;
#38 = ORIENTED_EDGE ( 'NONE', *, *, #83, .T. ) ;
#39 = EDGE_LOOP ( 'NONE', ( #131 ) ) ;
#40 = CC_DESIGN_PERSON_AND_ORGANIZATION_ASSIGNMENT ( #120, #33, ( #61 ) ) ;
#41 = EDGE_LOOP ( 'NONE', ( #6 ) ) ;
#42 = DIRECTION ( 'NONE',  ( 4.275831445896958607E-31, 1.000000000000000000, 1.224646799147353207E-16 ) ) ;
#43 = AXIS2_PLACEMENT_3D ( 'NONE', #27, #55, #209 ) ;
#44 = FACE_OUTER_BOUND ( 'NONE', #54, .T. ) ;
#45 = CARTESIAN_POINT ( 'NONE',  ( 2.182175836776958284E-13, -7.654042494670957804E-15, 62.50000000000000000 ) ) ;
#46 = CARTESIAN_POINT ( 'NONE',  ( 2.182175836776958284E-13, 3.999999999999993339, 62.50000000000000000 ) ) ;
#47 = UNCERTAINTY_MEASURE_WITH_UNIT (LENGTH_MEASURE( 1.000000000000000082E-05 ), #98, 'distance_accuracy_value', 'NONE');
#48 = ADVANCED_FACE ( 'NONE', ( #21, #167 ), #23, .F. ) ;
#49 = CARTESIAN_POINT ( 'NONE',  ( 2.199633243471174140E-13, 3.499999999999992895, 63.00000000000000000 ) ) ;
#50 = CARTESIAN_POINT ( 'NONE',  ( 0.0000000000000000000, 0.0000000000000000000, 0.0000000000000000000 ) ) ;
#51 = PERSON_AND_ORGANIZATION_ROLE ( 'creator' ) ;
#52 = CALENDAR_DATE ( 2021, 17, 11 ) ;
#53 = CC_DESIGN_APPROVAL ( #20, ( #28 ) ) ;
#54 = EDGE_LOOP ( 'NONE', ( #92 ) ) ;
#55 = DIRECTION ( 'NONE',  ( 3.491481338843133355E-15, -1.217917285207545432E-16, 1.000000000000000000 ) ) ;
#56 = PRODUCT_DEFINITION ( 'UNKNOWN', '', #28, #196 ) ;
#57 = FACE_OUTER_BOUND ( 'NONE', #230, .T. ) ;
#58 = CARTESIAN_POINT ( 'NONE',  ( 2.199633243471174140E-13, 2.624579619658239319E-32, 63.00000000000000000 ) ) ;
#59 = EDGE_CURVE ( 'NONE', #95, #95, #229, .T. ) ;
#60 = CARTESIAN_POINT ( 'NONE',  ( -3.999999999999934275, 0.0000000000000000000, 18.78388218141503074 ) ) ;
#61 = SECURITY_CLASSIFICATION ( '', '', #103 ) ;
#62 = DIRECTION ( 'NONE',  ( 0.0000000000000000000, 1.000000000000000000, 0.0000000000000000000 ) ) ;
#63 = ADVANCED_FACE ( 'NONE', ( #168, #3 ), #4, .T. ) ;
#64 = CARTESIAN_POINT ( 'NONE',  ( -2.806541412547378187E-30, -3.299999999999998934, -8.038254082369798178E-16 ) ) ;
#65 = CARTESIAN_POINT ( 'NONE',  ( 6.558357410743857348E-14, 0.0000000000000000000, 18.78388218141501653 ) ) ;
#66 = DATE_TIME_ROLE ( 'creation_date' ) ;
#67 = PERSON_AND_ORGANIZATION ( #32, #223 ) ;
#68 = PRODUCT_DEFINITION_SHAPE ( 'NONE', 'NONE',  #56 ) ;
#69 = CALENDAR_DATE ( 2021, 17, 11 ) ;
#70 = MANIFOLD_SOLID_BREP ( 'Corps-Déplacer/Copier1[2]', #182 ) ;
#71 = AXIS2_PLACEMENT_3D ( 'NONE', #217, #174, #79 ) ;
#72 = CARTESIAN_POINT ( 'NONE',  ( 0.0000000000000000000, 0.0000000000000000000, 0.0000000000000000000 ) ) ;
#73 = ADVANCED_FACE ( 'NONE', ( #57 ), #228, .F. ) ;
#74 = CYLINDRICAL_SURFACE ( 'NONE', #188, 3.499999999999998668 ) ;
#75 = EDGE_LOOP ( 'NONE', ( #107 ) ) ;
#76 = DIRECTION ( 'NONE',  ( 3.491481338843133355E-15, -0.0000000000000000000, 1.000000000000000000 ) ) ;
#77 = CARTESIAN_POINT ( 'NONE',  ( 3.500000000000053735, 0.0000000000000000000, 15.99999999999998579 ) ) ;
#78 = AXIS2_PLACEMENT_3D ( 'NONE', #45, #85, #62 ) ;
#79 = DIRECTION ( 'NONE',  ( -4.275831445896958607E-31, -1.000000000000000000, -1.224646799147353207E-16 ) ) ;
#80 = DIRECTION ( 'NONE',  ( 3.491481338843133355E-15, -1.217917285207545432E-16, 1.000000000000000000 ) ) ;
#81 = AXIS2_PLACEMENT_3D ( 'NONE', #130, #24, #149 ) ;
#82 = CC_DESIGN_PERSON_AND_ORGANIZATION_ASSIGNMENT ( #89, #51, ( #56 ) ) ;
#83 = EDGE_CURVE ( 'NONE', #172, #172, #84, .T. ) ;
#84 = CIRCLE ( 'NONE', #112, 3.499999999999997780 ) ;
#85 = DIRECTION ( 'NONE',  ( -3.491481338843133355E-15, 1.224646799147353207E-16, -1.000000000000000000 ) ) ;
#86 = LOCAL_TIME ( 10, 16, 6.000000000000000000, #242 ) ;
#87 = SHAPE_DEFINITION_REPRESENTATION ( #68, #12 ) ;
#88 = ORIENTED_EDGE ( 'NONE', *, *, #216, .F. ) ;
#89 = PERSON_AND_ORGANIZATION ( #32, #223 ) ;
#90 = LOCAL_TIME ( 10, 16, 6.000000000000000000, #101 ) ;
#91 = DIRECTION ( 'NONE',  ( 3.491481338843133355E-15, -0.0000000000000000000, 1.000000000000000000 ) ) ;
#92 = ORIENTED_EDGE ( 'NONE', *, *, #231, .F. ) ;
#93 = FACE_OUTER_BOUND ( 'NONE', #206, .T. ) ;
#94 = DIRECTION ( 'NONE',  ( -3.491481338843133355E-15, 1.224646799147353207E-16, -1.000000000000000000 ) ) ;
#95 = VERTEX_POINT ( 'NONE', #137 ) ;
#96 = DIRECTION ( 'NONE',  ( 4.275831445896958607E-31, 1.000000000000000000, 1.224646799147353207E-16 ) ) ;
#97 = CC_DESIGN_PERSON_AND_ORGANIZATION_ASSIGNMENT ( #162, #36, ( #200 ) ) ;
#98 =( LENGTH_UNIT ( ) NAMED_UNIT ( * ) SI_UNIT ( .MILLI., .METRE. ) );
#99 = FACE_OUTER_BOUND ( 'NONE', #37, .T. ) ;
#100 = PERSON_AND_ORGANIZATION ( #32, #223 ) ;
#101 = COORDINATED_UNIVERSAL_TIME_OFFSET ( 1, 0, .AHEAD. ) ;
#102 = DIRECTION ( 'NONE',  ( 1.000000000000000000, 0.0000000000000000000, 0.0000000000000000000 ) ) ;
#103 = SECURITY_CLASSIFICATION_LEVEL ( 'unclassified' ) ;
#104 = CIRCLE ( 'NONE', #239, 3.299999999999998934 ) ;
#105 = CONICAL_SURFACE ( 'NONE', #78, 4.000000000000000888, 0.7853981633974482790 ) ;
#106 = DATE_AND_TIME ( #69, #86 ) ;
#107 = ORIENTED_EDGE ( 'NONE', *, *, #59, .T. ) ;
#108 = CYLINDRICAL_SURFACE ( 'NONE', #135, 4.000000000000000000 ) ;
#109 = AXIS2_PLACEMENT_3D ( 'NONE', #159, #8, #11 ) ;
#110 = DIRECTION ( 'NONE',  ( 4.275831445896958607E-31, 1.000000000000000000, 1.224646799147353207E-16 ) ) ;
#111 = FACE_OUTER_BOUND ( 'NONE', #205, .T. ) ;
#112 = AXIS2_PLACEMENT_3D ( 'NONE', #190, #76, #153 ) ;
#113 = CC_DESIGN_APPROVAL ( #198, ( #61 ) ) ;
#114 = DIRECTION ( 'NONE',  ( -3.491481338843133355E-15, 1.224646799147353207E-16, -1.000000000000000000 ) ) ;
#115 = ADVANCED_FACE ( 'NONE', ( #44 ), #183, .T. ) ;
#116 = VERTEX_POINT ( 'NONE', #64 ) ;
#117 = CIRCLE ( 'NONE', #156, 4.000000000000000000 ) ;
#118 = VERTEX_POINT ( 'NONE', #60 ) ;
#119 = CARTESIAN_POINT ( 'NONE',  ( 5.586370142149013368E-14, 0.0000000000000000000, 16.00000000000000000 ) ) ;
#120 = PERSON_AND_ORGANIZATION ( #32, #223 ) ;
#121 = DATE_AND_TIME ( #202, #139 ) ;
#122 = CC_DESIGN_SECURITY_CLASSIFICATION ( #61, ( #28 ) ) ;
#123 = APPLICATION_CONTEXT ( 'configuration controlled 3d designs of mechanical parts and assemblies' ) ;
#124 = APPROVAL_ROLE ( '' ) ;
#125 = APPROVAL ( #127, 'UNSPECIFIED' ) ;
#126 = APPROVAL_ROLE ( '' ) ;
#127 = APPROVAL_STATUS ( 'not_yet_approved' ) ;
#128 = CC_DESIGN_APPROVAL ( #125, ( #56 ) ) ;
#129 = ORIENTED_EDGE ( 'NONE', *, *, #169, .T. ) ;
#130 = CARTESIAN_POINT ( 'NONE',  ( 5.586370142149013368E-14, 0.0000000000000000000, 16.00000000000000000 ) ) ;
#131 = ORIENTED_EDGE ( 'NONE', *, *, #59, .F. ) ;
#132 = EDGE_LOOP ( 'NONE', ( #38 ) ) ;
#133 = ADVANCED_FACE ( 'NONE', ( #13, #232 ), #105, .T. ) ;
#134 = CC_DESIGN_PERSON_AND_ORGANIZATION_ASSIGNMENT ( #243, #164, ( #28 ) ) ;
#135 = AXIS2_PLACEMENT_3D ( 'NONE', #72, #184, #110 ) ;
#136 = DIRECTION ( 'NONE',  ( 3.491481338843133355E-15, -1.224646799147353207E-16, 1.000000000000000000 ) ) ;
#137 = CARTESIAN_POINT ( 'NONE',  ( 6.982962677686240087E-16, -3.500000000000000000, 0.1999999999999992339 ) ) ;
#138 = AXIS2_PLACEMENT_3D ( 'NONE', #119, #29, #194 ) ;
#139 = LOCAL_TIME ( 10, 16, 6.000000000000000000, #17 ) ;
#140 = DIRECTION ( 'NONE',  ( -3.491481338843133355E-15, 1.224646799147353207E-16, -1.000000000000000000 ) ) ;
#141 = APPLICATION_PROTOCOL_DEFINITION ( 'international standard', 'config_control_design', 1994, #185 ) ;
#142 = COORDINATED_UNIVERSAL_TIME_OFFSET ( 1, 0, .AHEAD. ) ;
#143 = APPROVAL_PERSON_ORGANIZATION ( #100, #198, #124 ) ;
#144 = DATE_AND_TIME ( #221, #147 ) ;
#145 = APPROVAL_DATE_TIME ( #161, #125 ) ;
#146 = DIRECTION ( 'NONE',  ( 0.0000000000000000000, 0.0000000000000000000, 1.000000000000000000 ) ) ;
#147 = LOCAL_TIME ( 10, 16, 6.000000000000000000, #142 ) ;
#148 = ORIENTED_EDGE ( 'NONE', *, *, #216, .T. ) ;
#149 = DIRECTION ( 'NONE',  ( 1.000000000000000000, 0.0000000000000000000, -3.491481338843133355E-15 ) ) ;
#150 = CARTESIAN_POINT ( 'NONE',  ( 6.982962677686254878E-16, -2.435834570415086612E-17, 0.1999999999999996503 ) ) ;
#151 = PRODUCT_RELATED_PRODUCT_CATEGORY ( 'detail', '', ( #200 ) ) ;
#152 = FACE_OUTER_BOUND ( 'NONE', #240, .T. ) ;
#153 = DIRECTION ( 'NONE',  ( 1.000000000000000000, 0.0000000000000000000, -3.965082230804132981E-15 ) ) ;
#154 = MANIFOLD_SOLID_BREP ( 'Corps-Déplacer/Copier1[1]', #157 ) ;
#155 = DIRECTION ( 'NONE',  ( -1.000000000000000000, 0.0000000000000000000, 3.469446951953614189E-15 ) ) ;
#156 = AXIS2_PLACEMENT_3D ( 'NONE', #65, #215, #155 ) ;
#157 = CLOSED_SHELL ( 'NONE', ( #25, #133, #73, #48, #186 ) ) ;
#158 = PLANE ( 'NONE',  #210 ) ;
#159 = CARTESIAN_POINT ( 'NONE',  ( 2.199633243471174140E-13, -7.715274834628325378E-15, 63.00000000000000000 ) ) ;
#160 = MECHANICAL_CONTEXT ( 'NONE', #123, 'mechanical' ) ;
#161 = DATE_AND_TIME ( #52, #10 ) ;
#162 = PERSON_AND_ORGANIZATION ( #32, #223 ) ;
#163 = EDGE_LOOP ( 'NONE', ( #129 ) ) ;
#164 = PERSON_AND_ORGANIZATION_ROLE ( 'design_supplier' ) ;
#165 = PERSON_AND_ORGANIZATION_ROLE ( 'creator' ) ;
#166 = ORIENTED_EDGE ( 'NONE', *, *, #236, .T. ) ;
#167 = FACE_OUTER_BOUND ( 'NONE', #132, .T. ) ;
#168 = FACE_BOUND ( 'NONE', #189, .T. ) ;
#169 = EDGE_CURVE ( 'NONE', #173, #173, #220, .T. ) ;
#170 = DIRECTION ( 'NONE',  ( 1.000000000000000000, 0.0000000000000000000, -3.491481338843133355E-15 ) ) ;
#171 = CC_DESIGN_DATE_AND_TIME_ASSIGNMENT ( #121, #66, ( #56 ) ) ;
#172 = VERTEX_POINT ( 'NONE', #195 ) ;
#173 = VERTEX_POINT ( 'NONE', #49 ) ;
#174 = DIRECTION ( 'NONE',  ( 3.491481338843133355E-15, -1.224646799147353207E-16, 1.000000000000000000 ) ) ;
#175 = VERTEX_POINT ( 'NONE', #77 ) ;
#176 = FACE_OUTER_BOUND ( 'NONE', #41, .T. ) ;
#177 = ADVANCED_FACE ( 'NONE', ( #99 ), #193, .T. ) ;
#178 = CALENDAR_DATE ( 2021, 17, 11 ) ;
#179 = APPROVAL_DATE_TIME ( #16, #198 ) ;
#180 = PERSON_AND_ORGANIZATION ( #32, #223 ) ;
#181 = COORDINATED_UNIVERSAL_TIME_OFFSET ( 1, 0, .AHEAD. ) ;
#182 = CLOSED_SHELL ( 'NONE', ( #35, #177, #63, #115 ) ) ;
#183 = PLANE ( 'NONE',  #14 ) ;
#184 = DIRECTION ( 'NONE',  ( -3.491481338843133355E-15, 1.224646799147353207E-16, -1.000000000000000000 ) ) ;
#185 = APPLICATION_CONTEXT ( 'configuration controlled 3d designs of mechanical parts and assemblies' ) ;
#186 = ADVANCED_FACE ( 'NONE', ( #176 ), #158, .F. ) ;
#187 = EDGE_LOOP ( 'NONE', ( #26 ) ) ;
#188 = AXIS2_PLACEMENT_3D ( 'NONE', #208, #91, #170 ) ;
#189 = EDGE_LOOP ( 'NONE', ( #222 ) ) ;
#190 = CARTESIAN_POINT ( 'NONE',  ( 5.586370142149013368E-14, 0.0000000000000000000, 16.00000000000000000 ) ) ;
#191 = AXIS2_PLACEMENT_3D ( 'NONE', #150, #226, #5 ) ;
#192 = APPROVAL_PERSON_ORGANIZATION ( #67, #20, #18 ) ;
#193 = PLANE ( 'NONE',  #71 ) ;
#194 = DIRECTION ( 'NONE',  ( 1.000000000000000000, 0.0000000000000000000, -3.965082230804132981E-15 ) ) ;
#195 = CARTESIAN_POINT ( 'NONE',  ( 3.500000000000053735, 0.0000000000000000000, 15.99999999999998579 ) ) ;
#196 = DESIGN_CONTEXT ( 'detailed design', #185, 'design' ) ;
#197 = CARTESIAN_POINT ( 'NONE',  ( 2.182175836776958284E-13, -7.654042494670957804E-15, 62.50000000000000000 ) ) ;
#198 = APPROVAL ( #34, 'UNSPECIFIED' ) ;
#199 = CARTESIAN_POINT ( 'NONE',  ( 5.586370142149013368E-14, 2.999519565323712479E-32, 16.00000000000000000 ) ) ;
#200 = PRODUCT ( '37138', '37138', '', ( #160 ) ) ;
#201 = DATE_TIME_ROLE ( 'classification_date' ) ;
#202 = CALENDAR_DATE ( 2021, 17, 11 ) ;
#203 = PERSON_AND_ORGANIZATION ( #32, #223 ) ;
#204 =( GEOMETRIC_REPRESENTATION_CONTEXT ( 3 ) GLOBAL_UNCERTAINTY_ASSIGNED_CONTEXT ( ( #47 ) ) GLOBAL_UNIT_ASSIGNED_CONTEXT ( ( #98, #30, #211 ) ) REPRESENTATION_CONTEXT ( 'NONE', 'WORKASPACE' ) );
#205 = EDGE_LOOP ( 'NONE', ( #2 ) ) ;
#206 = EDGE_LOOP ( 'NONE', ( #166 ) ) ;
#207 = ORIENTED_EDGE ( 'NONE', *, *, #233, .T. ) ;
#208 = CARTESIAN_POINT ( 'NONE',  ( -6.413747168845438786E-31, 0.0000000000000000000, -1.836970198721029934E-16 ) ) ;
#209 = DIRECTION ( 'NONE',  ( -4.126992737972647881E-31, -1.000000000000000000, -1.239088197126290817E-16 ) ) ;
#210 = AXIS2_PLACEMENT_3D ( 'NONE', #199, #136, #237 ) ;
#211 =( NAMED_UNIT ( * ) SI_UNIT ( $, .STERADIAN. ) SOLID_ANGLE_UNIT ( ) );
#212 = CARTESIAN_POINT ( 'NONE',  ( -1.403270706273689094E-30, 4.894964294904146201E-32, -4.019127041184899089E-16 ) ) ;
#213 = DIRECTION ( 'NONE',  ( -4.252335473556634944E-31, -1.000000000000000000, -1.217917285207545679E-16 ) ) ;
#214 = AXIS2_PLACEMENT_3D ( 'NONE', #50, #146, #102 ) ;
#215 = DIRECTION ( 'NONE',  ( 3.491481338843133355E-15, -0.0000000000000000000, 1.000000000000000000 ) ) ;
#216 = EDGE_CURVE ( 'NONE', #7, #7, #31, .T. ) ;
#217 = CARTESIAN_POINT ( 'NONE',  ( 5.586370142149013368E-14, 2.999519565323712479E-32, 16.00000000000000000 ) ) ;
#218 = APPROVAL_STATUS ( 'not_yet_approved' ) ;
#219 = AXIS2_PLACEMENT_3D ( 'NONE', #58, #94, #42 ) ;
#220 = CIRCLE ( 'NONE', #109, 3.500000000000000444 ) ;
#221 = CALENDAR_DATE ( 2021, 17, 11 ) ;
#222 = ORIENTED_EDGE ( 'NONE', *, *, #231, .T. ) ;
#223 = ORGANIZATION ( 'UNSPECIFIED', 'UNSPECIFIED', '' ) ;
#224 = CC_DESIGN_PERSON_AND_ORGANIZATION_ASSIGNMENT ( #203, #165, ( #28 ) ) ;
#225 = ORIENTED_EDGE ( 'NONE', *, *, #169, .F. ) ;
#226 = DIRECTION ( 'NONE',  ( 3.491481338843133355E-15, -1.217917285207545432E-16, 1.000000000000000000 ) ) ;
#227 = CIRCLE ( 'NONE', #138, 3.499999999999997780 ) ;
#228 = PLANE ( 'NONE',  #219 ) ;
#229 = CIRCLE ( 'NONE', #43, 3.500000000000000000 ) ;
#230 = EDGE_LOOP ( 'NONE', ( #225 ) ) ;
#231 = EDGE_CURVE ( 'NONE', #116, #116, #104, .T. ) ;
#232 = FACE_OUTER_BOUND ( 'NONE', #19, .T. ) ;
#233 = EDGE_CURVE ( 'NONE', #175, #175, #227, .T. ) ;
#234 = DIRECTION ( 'NONE',  ( 0.0000000000000000000, 1.000000000000000000, 0.0000000000000000000 ) ) ;
#235 = APPROVAL_PERSON_ORGANIZATION ( #180, #125, #126 ) ;
#236 = EDGE_CURVE ( 'NONE', #118, #118, #117, .T. ) ;
#237 = DIRECTION ( 'NONE',  ( -4.275831445896958607E-31, -1.000000000000000000, -1.224646799147353207E-16 ) ) ;
#238 = APPLICATION_PROTOCOL_DEFINITION ( 'international standard', 'config_control_design', 1994, #123 ) ;
#239 = AXIS2_PLACEMENT_3D ( 'NONE', #212, #80, #213 ) ;
#240 = EDGE_LOOP ( 'NONE', ( #148 ) ) ;
#241 = CC_DESIGN_DATE_AND_TIME_ASSIGNMENT ( #106, #201, ( #61 ) ) ;
#242 = COORDINATED_UNIVERSAL_TIME_OFFSET ( 1, 0, .AHEAD. ) ;
#243 = PERSON_AND_ORGANIZATION ( #32, #223 ) ;
ENDSEC;
END-ISO-10303-21;
