ISO-10303-21;
HEADER;
FILE_DESCRIPTION (( 'STEP AP203' ),
    '1' );
FILE_NAME ('37137.step',
    '2021-11-17T09:16:05',
    ( '' ),
    ( '' ),
    'SwSTEP 2.0',
    'SolidWorks 2019',
    '' );
FILE_SCHEMA (( 'CONFIG_CONTROL_DESIGN' ));
ENDSEC;

DATA;
#1 = APPROVAL_STATUS ( 'not_yet_approved' ) ;
#2 = CARTESIAN_POINT ( 'NONE',  ( 4.538925740496073362E-14, 2.999519565323712479E-32, 13.00000000000000000 ) ) ;
#3 = APPROVAL_ROLE ( '' ) ;
#4 = COORDINATED_UNIVERSAL_TIME_OFFSET ( 1, 0, .AHEAD. ) ;
#5 = CLOSED_SHELL ( 'NONE', ( #233, #129, #79, #107 ) ) ;
#6 = AXIS2_PLACEMENT_3D ( 'NONE', #217, #32, #17 ) ;
#7 = APPROVAL_DATE_TIME ( #22, #191 ) ;
#8 = CC_DESIGN_APPROVAL ( #19, ( #229 ) ) ;
#9 = EDGE_LOOP ( 'NONE', ( #134 ) ) ;
#10 = FACE_OUTER_BOUND ( 'NONE', #135, .T. ) ;
#11 = ORIENTED_EDGE ( 'NONE', *, *, #30, .F. ) ;
#12 = PRODUCT ( '37137', '37137', '', ( #100 ) ) ;
#13 = CYLINDRICAL_SURFACE ( 'NONE', #78, 2.999999999999999556 ) ;
#14 = PLANE ( 'NONE',  #51 ) ;
#15 = AXIS2_PLACEMENT_3D ( 'NONE', #69, #139, #170 ) ;
#16 = PERSON_AND_ORGANIZATION ( #192, #43 ) ;
#17 = DIRECTION ( 'NONE',  ( -4.172848212839010723E-31, -1.000000000000000000, -1.174552353525963055E-16 ) ) ;
#18 = DIRECTION ( 'NONE',  ( 1.000000000000000000, 0.0000000000000000000, -3.491481338843133355E-15 ) ) ;
#19 = APPROVAL ( #1, 'UNSPECIFIED' ) ;
#20 = DIRECTION ( 'NONE',  ( 3.491481338843133355E-15, -1.224646799147353207E-16, 1.000000000000000000 ) ) ;
#21 = AXIS2_PLACEMENT_3D ( 'NONE', #90, #156, #236 ) ;
#22 = DATE_AND_TIME ( #94, #65 ) ;
#23 = DATE_TIME_ROLE ( 'creation_date' ) ;
#24 = EDGE_CURVE ( 'NONE', #155, #155, #128, .T. ) ;
#25 = APPROVAL_PERSON_ORGANIZATION ( #127, #19, #167 ) ;
#26 = ORIENTED_EDGE ( 'NONE', *, *, #222, .T. ) ;
#27 = APPROVAL_PERSON_ORGANIZATION ( #106, #191, #3 ) ;
#28 = CARTESIAN_POINT ( 'NONE',  ( 4.538925740496072731E-14, 0.0000000000000000000, 12.99999999999999822 ) ) ;
#29 = DIRECTION ( 'NONE',  ( -4.275831445896958607E-31, -1.000000000000000000, -1.224646799147353207E-16 ) ) ;
#30 = EDGE_CURVE ( 'NONE', #220, #220, #169, .T. ) ;
#31 = DIRECTION ( 'NONE',  ( 1.000000000000000000, 0.0000000000000000000, 0.0000000000000000000 ) ) ;
#32 = DIRECTION ( 'NONE',  ( 3.491481338843133355E-15, -1.217917285207545432E-16, 1.000000000000000000 ) ) ;
#33 = LOCAL_TIME ( 10, 16, 5.000000000000000000, #183 ) ;
#34 = CARTESIAN_POINT ( 'NONE',  ( 2.199633243471174140E-13, -7.715274834628325378E-15, 63.00000000000000000 ) ) ;
#35 = CARTESIAN_POINT ( 'NONE',  ( 2.182175836776958284E-13, 3.999999999999993339, 62.50000000000000000 ) ) ;
#36 = FACE_OUTER_BOUND ( 'NONE', #230, .T. ) ;
#37 = DIRECTION ( 'NONE',  ( -4.172848212839010723E-31, -1.000000000000000000, -1.174552353525963055E-16 ) ) ;
#38 = SECURITY_CLASSIFICATION_LEVEL ( 'unclassified' ) ;
#39 = AXIS2_PLACEMENT_3D ( 'NONE', #235, #159, #53 ) ;
#40 = EDGE_CURVE ( 'NONE', #201, #201, #82, .T. ) ;
#41 = CALENDAR_DATE ( 2021, 17, 11 ) ;
#42 = CLOSED_SHELL ( 'NONE', ( #115, #210, #47, #64, #62 ) ) ;
#43 = ORGANIZATION ( 'UNSPECIFIED', 'UNSPECIFIED', '' ) ;
#44 = PERSON_AND_ORGANIZATION_ROLE ( 'creator' ) ;
#45 = UNCERTAINTY_MEASURE_WITH_UNIT (LENGTH_MEASURE( 1.000000000000000082E-05 ), #120, 'distance_accuracy_value', 'NONE');
#46 = CONICAL_SURFACE ( 'NONE', #21, 4.000000000000000888, 0.7853981633974482790 ) ;
#47 = ADVANCED_FACE ( 'NONE', ( #243 ), #175, .F. ) ;
#48 = CONICAL_SURFACE ( 'NONE', #6, 3.000000000000000000, 0.7853981633974504994 ) ;
#49 = ORIENTED_EDGE ( 'NONE', *, *, #30, .T. ) ;
#50 = EDGE_LOOP ( 'NONE', ( #85 ) ) ;
#51 = AXIS2_PLACEMENT_3D ( 'NONE', #117, #104, #213 ) ;
#52 = CARTESIAN_POINT ( 'NONE',  ( 4.538925740496073362E-14, 2.999519565323712479E-32, 13.00000000000000000 ) ) ;
#53 = DIRECTION ( 'NONE',  ( -4.252335473556634068E-31, -1.000000000000000000, -1.217917285207545432E-16 ) ) ;
#54 = FACE_BOUND ( 'NONE', #172, .T. ) ;
#55 = DIRECTION ( 'NONE',  ( 1.000000000000000000, 0.0000000000000000000, -3.469446951953615372E-15 ) ) ;
#56 = LOCAL_TIME ( 10, 16, 5.000000000000000000, #146 ) ;
#57 = FACE_OUTER_BOUND ( 'NONE', #136, .T. ) ;
#58 = FACE_OUTER_BOUND ( 'NONE', #231, .T. ) ;
#59 = DATE_AND_TIME ( #185, #33 ) ;
#60 = CC_DESIGN_PERSON_AND_ORGANIZATION_ASSIGNMENT ( #16, #91, ( #12 ) ) ;
#61 = CALENDAR_DATE ( 2021, 17, 11 ) ;
#62 = ADVANCED_FACE ( 'NONE', ( #57 ), #114, .F. ) ;
#63 = ORIENTED_EDGE ( 'NONE', *, *, #228, .T. ) ;
#64 = ADVANCED_FACE ( 'NONE', ( #93, #87 ), #147, .F. ) ;
#65 = LOCAL_TIME ( 10, 16, 5.000000000000000000, #74 ) ;
#66 = CARTESIAN_POINT ( 'NONE',  ( -3.999999999999940936, 0.0000000000000000000, 16.87298334620743034 ) ) ;
#67 = EDGE_LOOP ( 'NONE', ( #211 ) ) ;
#68 = APPLICATION_PROTOCOL_DEFINITION ( 'international standard', 'config_control_design', 1994, #193 ) ;
#69 = CARTESIAN_POINT ( 'NONE',  ( 2.182175836776958284E-13, -7.654042494670957804E-15, 62.50000000000000000 ) ) ;
#70 =( NAMED_UNIT ( * ) PLANE_ANGLE_UNIT ( ) SI_UNIT ( $, .RADIAN. ) );
#71 = CARTESIAN_POINT ( 'NONE',  ( 2.199633243471174140E-13, 2.624579619658239319E-32, 63.00000000000000000 ) ) ;
#72 = DIRECTION ( 'NONE',  ( -3.491481338843133355E-15, 1.224646799147353207E-16, -1.000000000000000000 ) ) ;
#73 = DIRECTION ( 'NONE',  ( 1.000000000000000000, 0.0000000000000000000, -3.491481338843132961E-15 ) ) ;
#74 = COORDINATED_UNIVERSAL_TIME_OFFSET ( 1, 0, .AHEAD. ) ;
#75 = EDGE_CURVE ( 'NONE', #216, #216, #96, .T. ) ;
#76 = APPROVAL_STATUS ( 'not_yet_approved' ) ;
#77 = DATE_TIME_ROLE ( 'classification_date' ) ;
#78 = AXIS2_PLACEMENT_3D ( 'NONE', #179, #157, #18 ) ;
#79 = ADVANCED_FACE ( 'NONE', ( #239, #105 ), #48, .T. ) ;
#80 = DESIGN_CONTEXT ( 'detailed design', #133, 'design' ) ;
#81 = EDGE_CURVE ( 'NONE', #241, #241, #190, .T. ) ;
#82 = CIRCLE ( 'NONE', #153, 3.500000000000000444 ) ;
#83 = EDGE_LOOP ( 'NONE', ( #150 ) ) ;
#84 = FACE_OUTER_BOUND ( 'NONE', #111, .T. ) ;
#85 = ORIENTED_EDGE ( 'NONE', *, *, #75, .T. ) ;
#86 = CARTESIAN_POINT ( 'NONE',  ( 3.000000000000044853, 0.0000000000000000000, 12.99999999999998757 ) ) ;
#87 = FACE_OUTER_BOUND ( 'NONE', #83, .T. ) ;
#88 = AXIS2_PLACEMENT_3D ( 'NONE', #28, #196, #55 ) ;
#89 = CARTESIAN_POINT ( 'NONE',  ( -2.381307865191714518E-30, -2.799999999999998934, -6.820336797162252252E-16 ) ) ;
#90 = CARTESIAN_POINT ( 'NONE',  ( 2.182175836776958284E-13, -7.654042494670957804E-15, 62.50000000000000000 ) ) ;
#91 = PERSON_AND_ORGANIZATION_ROLE ( 'design_owner' ) ;
#92 = FACE_OUTER_BOUND ( 'NONE', #50, .T. ) ;
#93 = FACE_OUTER_BOUND ( 'NONE', #67, .T. ) ;
#94 = CALENDAR_DATE ( 2021, 17, 11 ) ;
#95 = DATE_AND_TIME ( #61, #56 ) ;
#96 = CIRCLE ( 'NONE', #214, 4.000000000000000000 ) ;
#97 = CC_DESIGN_PERSON_AND_ORGANIZATION_ASSIGNMENT ( #161, #226, ( #137 ) ) ;
#98 = EDGE_LOOP ( 'NONE', ( #11 ) ) ;
#99 = FACE_OUTER_BOUND ( 'NONE', #108, .T. ) ;
#100 = MECHANICAL_CONTEXT ( 'NONE', #193, 'mechanical' ) ;
#101 = DIRECTION ( 'NONE',  ( 1.000000000000000000, 0.0000000000000000000, -3.469446951953615372E-15 ) ) ;
#102 = VERTEX_POINT ( 'NONE', #35 ) ;
#103 = CARTESIAN_POINT ( 'NONE',  ( 4.538925740496073362E-14, 0.0000000000000000000, 13.00000000000000000 ) ) ;
#104 = DIRECTION ( 'NONE',  ( -3.491481338843133355E-15, 1.224646799147353207E-16, -1.000000000000000000 ) ) ;
#105 = FACE_OUTER_BOUND ( 'NONE', #98, .T. ) ;
#106 = PERSON_AND_ORGANIZATION ( #192, #43 ) ;
#107 = ADVANCED_FACE ( 'NONE', ( #36 ), #14, .T. ) ;
#108 = EDGE_LOOP ( 'NONE', ( #234 ) ) ;
#109 = AXIS2_PLACEMENT_3D ( 'NONE', #2, #113, #29 ) ;
#110 = ORIENTED_EDGE ( 'NONE', *, *, #81, .F. ) ;
#111 = EDGE_LOOP ( 'NONE', ( #194 ) ) ;
#112 = ORIENTED_EDGE ( 'NONE', *, *, #24, .T. ) ;
#113 = DIRECTION ( 'NONE',  ( 3.491481338843133355E-15, -1.224646799147353207E-16, 1.000000000000000000 ) ) ;
#114 = PLANE ( 'NONE',  #195 ) ;
#115 = ADVANCED_FACE ( 'NONE', ( #180, #92 ), #160, .T. ) ;
#116 = VERTEX_POINT ( 'NONE', #89 ) ;
#117 = CARTESIAN_POINT ( 'NONE',  ( -8.551662891793915461E-31, 2.999519565323715216E-32, -2.449293598294706414E-16 ) ) ;
#118 = AXIS2_PLACEMENT_3D ( 'NONE', #215, #221, #152 ) ;
#119 = CARTESIAN_POINT ( 'NONE',  ( 4.538925740496072731E-14, 0.0000000000000000000, 12.99999999999999822 ) ) ;
#120 =( LENGTH_UNIT ( ) NAMED_UNIT ( * ) SI_UNIT ( .MILLI., .METRE. ) );
#121 = CARTESIAN_POINT ( 'NONE',  ( 6.982962677686257836E-16, -2.435834570415087537E-17, 0.1999999999999997335 ) ) ;
#122 = CALENDAR_DATE ( 2021, 17, 11 ) ;
#123 = AXIS2_PLACEMENT_3D ( 'NONE', #121, #176, #37 ) ;
#124 = LOCAL_TIME ( 10, 16, 5.000000000000000000, #4 ) ;
#125 = APPROVAL_DATE_TIME ( #95, #173 ) ;
#126 = PERSON_AND_ORGANIZATION ( #192, #43 ) ;
#127 = PERSON_AND_ORGANIZATION ( #192, #43 ) ;
#128 = CIRCLE ( 'NONE', #88, 2.999999999999999112 ) ;
#129 = ADVANCED_FACE ( 'NONE', ( #58 ), #162, .T. ) ;
#130 = APPROVAL_PERSON_ORGANIZATION ( #163, #173, #186 ) ;
#131 = CC_DESIGN_DATE_AND_TIME_ASSIGNMENT ( #225, #23, ( #229 ) ) ;
#132 = ORIENTED_EDGE ( 'NONE', *, *, #228, .F. ) ;
#133 = APPLICATION_CONTEXT ( 'configuration controlled 3d designs of mechanical parts and assemblies' ) ;
#134 = ORIENTED_EDGE ( 'NONE', *, *, #40, .F. ) ;
#135 = EDGE_LOOP ( 'NONE', ( #49 ) ) ;
#136 = EDGE_LOOP ( 'NONE', ( #110 ) ) ;
#137 = PRODUCT_DEFINITION_FORMATION_WITH_SPECIFIED_SOURCE ( 'ANY', '', #12, .NOT_KNOWN. ) ;
#138 = CARTESIAN_POINT ( 'NONE',  ( 6.982962677686245017E-16, -3.000000000000000000, 0.1999999999999993727 ) ) ;
#139 = DIRECTION ( 'NONE',  ( -3.491481338843133355E-15, 1.224646799147353207E-16, -1.000000000000000000 ) ) ;
#140 = CARTESIAN_POINT ( 'NONE',  ( 0.0000000000000000000, 0.0000000000000000000, 0.0000000000000000000 ) ) ;
#141 = DIRECTION ( 'NONE',  ( -4.275831445896958607E-31, -1.000000000000000000, -1.224646799147353207E-16 ) ) ;
#142 = APPROVAL_DATE_TIME ( #59, #19 ) ;
#143 = PERSON_AND_ORGANIZATION_ROLE ( 'creator' ) ;
#144 = CC_DESIGN_APPROVAL ( #173, ( #137 ) ) ;
#145 = PRODUCT_RELATED_PRODUCT_CATEGORY ( 'detail', '', ( #12 ) ) ;
#146 = COORDINATED_UNIVERSAL_TIME_OFFSET ( 1, 0, .AHEAD. ) ;
#147 = TOROIDAL_SURFACE ( 'NONE', #224, 11.00000000000000000, 8.000000000000000000 ) ;
#148 = MANIFOLD_SOLID_BREP ( 'Corps-Déplacer/Copier1[1]', #42 ) ;
#149 = CC_DESIGN_APPROVAL ( #191, ( #177 ) ) ;
#150 = ORIENTED_EDGE ( 'NONE', *, *, #81, .T. ) ;
#151 = MANIFOLD_SOLID_BREP ( 'Corps-Déplacer/Copier1[2]', #5 ) ;
#152 = DIRECTION ( 'NONE',  ( 4.275831445896958607E-31, 1.000000000000000000, 1.224646799147353207E-16 ) ) ;
#153 = AXIS2_PLACEMENT_3D ( 'NONE', #34, #198, #158 ) ;
#154 = PRODUCT_DEFINITION_SHAPE ( 'NONE', 'NONE',  #229 ) ;
#155 = VERTEX_POINT ( 'NONE', #86 ) ;
#156 = DIRECTION ( 'NONE',  ( -3.491481338843133355E-15, 1.224646799147353207E-16, -1.000000000000000000 ) ) ;
#157 = DIRECTION ( 'NONE',  ( 3.491481338843133355E-15, -0.0000000000000000000, 1.000000000000000000 ) ) ;
#158 = DIRECTION ( 'NONE',  ( 0.0000000000000000000, 1.000000000000000000, 0.0000000000000000000 ) ) ;
#159 = DIRECTION ( 'NONE',  ( 3.491481338843133355E-15, -1.217917285207545432E-16, 1.000000000000000000 ) ) ;
#160 = CYLINDRICAL_SURFACE ( 'NONE', #118, 4.000000000000000000 ) ;
#161 = PERSON_AND_ORGANIZATION ( #192, #43 ) ;
#162 = PLANE ( 'NONE',  #109 ) ;
#163 = PERSON_AND_ORGANIZATION ( #192, #43 ) ;
#164 = PERSON_AND_ORGANIZATION_ROLE ( 'classification_officer' ) ;
#165 = CC_DESIGN_PERSON_AND_ORGANIZATION_ASSIGNMENT ( #206, #164, ( #177 ) ) ;
#166 = CIRCLE ( 'NONE', #15, 4.000000000000000888 ) ;
#167 = APPROVAL_ROLE ( '' ) ;
#168 = CC_DESIGN_PERSON_AND_ORGANIZATION_ASSIGNMENT ( #223, #44, ( #137 ) ) ;
#169 = CIRCLE ( 'NONE', #123, 3.000000000000000000 ) ;
#170 = DIRECTION ( 'NONE',  ( 0.0000000000000000000, 1.000000000000000000, 0.0000000000000000000 ) ) ;
#171 = EDGE_LOOP ( 'NONE', ( #26 ) ) ;
#172 = EDGE_LOOP ( 'NONE', ( #189 ) ) ;
#173 = APPROVAL ( #188, 'UNSPECIFIED' ) ;
#174 = CARTESIAN_POINT ( 'NONE',  ( 3.000000000000044853, 0.0000000000000000000, 12.99999999999998757 ) ) ;
#175 = PLANE ( 'NONE',  #227 ) ;
#176 = DIRECTION ( 'NONE',  ( 3.491481338843133355E-15, -1.217917285207545432E-16, 1.000000000000000000 ) ) ;
#177 = SECURITY_CLASSIFICATION ( '', '', #38 ) ;
#178 = DIRECTION ( 'NONE',  ( 4.275831445896958607E-31, 1.000000000000000000, 1.224646799147353207E-16 ) ) ;
#179 = CARTESIAN_POINT ( 'NONE',  ( -6.413747168845438786E-31, 0.0000000000000000000, -1.836970198721029934E-16 ) ) ;
#180 = FACE_OUTER_BOUND ( 'NONE', #171, .T. ) ;
#181 = DATE_AND_TIME ( #41, #124 ) ;
#182 = DIRECTION ( 'NONE',  ( -1.000000000000000000, 0.0000000000000000000, 3.469446951953614189E-15 ) ) ;
#183 = COORDINATED_UNIVERSAL_TIME_OFFSET ( 1, 0, .AHEAD. ) ;
#184 = CC_DESIGN_PERSON_AND_ORGANIZATION_ASSIGNMENT ( #126, #143, ( #229 ) ) ;
#185 = CALENDAR_DATE ( 2021, 17, 11 ) ;
#186 = APPROVAL_ROLE ( '' ) ;
#187 = CC_DESIGN_SECURITY_CLASSIFICATION ( #177, ( #137 ) ) ;
#188 = APPROVAL_STATUS ( 'not_yet_approved' ) ;
#189 = ORIENTED_EDGE ( 'NONE', *, *, #40, .T. ) ;
#190 = CIRCLE ( 'NONE', #232, 2.999999999999999112 ) ;
#191 = APPROVAL ( #76, 'UNSPECIFIED' ) ;
#192 = PERSON ( 'UNSPECIFIED', 'UNSPECIFIED', 'UNSPECIFIED', ('UNSPECIFIED'), ('UNSPECIFIED'), ('UNSPECIFIED') ) ;
#193 = APPLICATION_CONTEXT ( 'configuration controlled 3d designs of mechanical parts and assemblies' ) ;
#194 = ORIENTED_EDGE ( 'NONE', *, *, #24, .F. ) ;
#195 = AXIS2_PLACEMENT_3D ( 'NONE', #52, #20, #141 ) ;
#196 = DIRECTION ( 'NONE',  ( 3.491481338843133355E-15, -0.0000000000000000000, 1.000000000000000000 ) ) ;
#197 = DIRECTION ( 'NONE',  ( 0.0000000000000000000, 0.0000000000000000000, 1.000000000000000000 ) ) ;
#198 = DIRECTION ( 'NONE',  ( -3.491481338843133355E-15, 1.224646799147353207E-16, -1.000000000000000000 ) ) ;
#199 = DIRECTION ( 'NONE',  ( 3.491481338843133355E-15, -0.0000000000000000000, 1.000000000000000000 ) ) ;
#200 =( GEOMETRIC_REPRESENTATION_CONTEXT ( 3 ) GLOBAL_UNCERTAINTY_ASSIGNED_CONTEXT ( ( #45 ) ) GLOBAL_UNIT_ASSIGNED_CONTEXT ( ( #120, #70, #212 ) ) REPRESENTATION_CONTEXT ( 'NONE', 'WORKASPACE' ) );
#201 = VERTEX_POINT ( 'NONE', #238 ) ;
#202 = DIRECTION ( 'NONE',  ( 3.491481338843133355E-15, -0.0000000000000000000, 1.000000000000000000 ) ) ;
#203 = DIRECTION ( 'NONE',  ( 3.491481338843133355E-15, -0.0000000000000000000, 1.000000000000000000 ) ) ;
#204 = CIRCLE ( 'NONE', #39, 2.799999999999998934 ) ;
#205 = SHAPE_DEFINITION_REPRESENTATION ( #154, #242 ) ;
#206 = PERSON_AND_ORGANIZATION ( #192, #43 ) ;
#207 = COORDINATED_UNIVERSAL_TIME_OFFSET ( 1, 0, .AHEAD. ) ;
#208 = EDGE_LOOP ( 'NONE', ( #63 ) ) ;
#209 = AXIS2_PLACEMENT_3D ( 'NONE', #140, #197, #31 ) ;
#210 = ADVANCED_FACE ( 'NONE', ( #54, #99 ), #46, .T. ) ;
#211 = ORIENTED_EDGE ( 'NONE', *, *, #75, .F. ) ;
#212 =( NAMED_UNIT ( * ) SI_UNIT ( $, .STERADIAN. ) SOLID_ANGLE_UNIT ( ) );
#213 = DIRECTION ( 'NONE',  ( 4.275831445896958607E-31, 1.000000000000000000, 1.224646799147353207E-16 ) ) ;
#214 = AXIS2_PLACEMENT_3D ( 'NONE', #219, #199, #182 ) ;
#215 = CARTESIAN_POINT ( 'NONE',  ( 0.0000000000000000000, 0.0000000000000000000, 0.0000000000000000000 ) ) ;
#216 = VERTEX_POINT ( 'NONE', #66 ) ;
#217 = CARTESIAN_POINT ( 'NONE',  ( 6.982962677686257836E-16, -2.435834570415087537E-17, 0.1999999999999997335 ) ) ;
#218 = APPLICATION_PROTOCOL_DEFINITION ( 'international standard', 'config_control_design', 1994, #133 ) ;
#219 = CARTESIAN_POINT ( 'NONE',  ( 5.891170648389416491E-14, 0.0000000000000000000, 16.87298334620741969 ) ) ;
#220 = VERTEX_POINT ( 'NONE', #138 ) ;
#221 = DIRECTION ( 'NONE',  ( -3.491481338843133355E-15, 1.224646799147353207E-16, -1.000000000000000000 ) ) ;
#222 = EDGE_CURVE ( 'NONE', #102, #102, #166, .T. ) ;
#223 = PERSON_AND_ORGANIZATION ( #192, #43 ) ;
#224 = AXIS2_PLACEMENT_3D ( 'NONE', #103, #203, #73 ) ;
#225 = DATE_AND_TIME ( #122, #237 ) ;
#226 = PERSON_AND_ORGANIZATION_ROLE ( 'design_supplier' ) ;
#227 = AXIS2_PLACEMENT_3D ( 'NONE', #71, #72, #178 ) ;
#228 = EDGE_CURVE ( 'NONE', #116, #116, #204, .T. ) ;
#229 = PRODUCT_DEFINITION ( 'UNKNOWN', '', #137, #80 ) ;
#230 = EDGE_LOOP ( 'NONE', ( #132 ) ) ;
#231 = EDGE_LOOP ( 'NONE', ( #112 ) ) ;
#232 = AXIS2_PLACEMENT_3D ( 'NONE', #119, #202, #101 ) ;
#233 = ADVANCED_FACE ( 'NONE', ( #84, #10 ), #13, .T. ) ;
#234 = ORIENTED_EDGE ( 'NONE', *, *, #222, .F. ) ;
#235 = CARTESIAN_POINT ( 'NONE',  ( -1.190653932595857434E-30, 4.153303038100488083E-32, -3.410168398581126126E-16 ) ) ;
#236 = DIRECTION ( 'NONE',  ( 0.0000000000000000000, 1.000000000000000000, 0.0000000000000000000 ) ) ;
#237 = LOCAL_TIME ( 10, 16, 5.000000000000000000, #207 ) ;
#238 = CARTESIAN_POINT ( 'NONE',  ( 2.199633243471174140E-13, 3.499999999999992895, 63.00000000000000000 ) ) ;
#239 = FACE_BOUND ( 'NONE', #208, .T. ) ;
#240 = CC_DESIGN_DATE_AND_TIME_ASSIGNMENT ( #181, #77, ( #177 ) ) ;
#241 = VERTEX_POINT ( 'NONE', #174 ) ;
#242 = ADVANCED_BREP_SHAPE_REPRESENTATION ( '37137', ( #148, #151, #209 ), #200 ) ;
#243 = FACE_OUTER_BOUND ( 'NONE', #9, .T. ) ;
ENDSEC;
END-ISO-10303-21;
