ISO-10303-21;
HEADER;
FILE_DESCRIPTION (( 'STEP AP203' ),
    '1' );
FILE_NAME ('37136.step',
    '2021-11-17T09:16:05',
    ( '' ),
    ( '' ),
    'SwSTEP 2.0',
    'SolidWorks 2019',
    '' );
FILE_SCHEMA (( 'CONFIG_CONTROL_DESIGN' ));
ENDSEC;

DATA;
#1 = CALENDAR_DATE ( 2021, 17, 11 ) ;
#2 = FACE_OUTER_BOUND ( 'NONE', #74, .T. ) ;
#3 = PRODUCT_DEFINITION_SHAPE ( 'NONE', 'NONE',  #8 ) ;
#4 = APPROVAL ( #242, 'UNSPECIFIED' ) ;
#5 = VERTEX_POINT ( 'NONE', #154 ) ;
#6 = VERTEX_POINT ( 'NONE', #110 ) ;
#7 = CC_DESIGN_APPROVAL ( #229, ( #8 ) ) ;
#8 = PRODUCT_DEFINITION ( 'UNKNOWN', '', #46, #118 ) ;
#9 = APPLICATION_PROTOCOL_DEFINITION ( 'international standard', 'config_control_design', 1994, #81 ) ;
#10 = EDGE_LOOP ( 'NONE', ( #88 ) ) ;
#11 = ORIENTED_EDGE ( 'NONE', *, *, #184, .T. ) ;
#12 = ORIENTED_EDGE ( 'NONE', *, *, #18, .T. ) ;
#13 = DIRECTION ( 'NONE',  ( 3.491481338843133355E-15, -0.0000000000000000000, 1.000000000000000000 ) ) ;
#14 = CARTESIAN_POINT ( 'NONE',  ( 6.982962677686259808E-16, -2.435834570415088461E-17, 0.1999999999999997891 ) ) ;
#15 = CIRCLE ( 'NONE', #199, 2.500000000000000000 ) ;
#16 = LOCAL_TIME ( 10, 16, 5.000000000000000000, #189 ) ;
#17 = CARTESIAN_POINT ( 'NONE',  ( 0.0000000000000000000, 0.0000000000000000000, 0.0000000000000000000 ) ) ;
#18 = EDGE_CURVE ( 'NONE', #191, #191, #45, .T. ) ;
#19 = CARTESIAN_POINT ( 'NONE',  ( 1.990144363140586139E-13, -6.980486755139912911E-15, 57.00000000000000000 ) ) ;
#20 = DATE_AND_TIME ( #56, #120 ) ;
#21 =( GEOMETRIC_REPRESENTATION_CONTEXT ( 3 ) GLOBAL_UNCERTAINTY_ASSIGNED_CONTEXT ( ( #176 ) ) GLOBAL_UNIT_ASSIGNED_CONTEXT ( ( #192, #230, #174 ) ) REPRESENTATION_CONTEXT ( 'NONE', 'WORKASPACE' ) );
#22 = PERSON_AND_ORGANIZATION ( #69, #155 ) ;
#23 = SHAPE_DEFINITION_REPRESENTATION ( #3, #26 ) ;
#24 = CARTESIAN_POINT ( 'NONE',  ( 1.972686956446370283E-13, 2.999999999999992895, 56.49999999999999289 ) ) ;
#25 = CONICAL_SURFACE ( 'NONE', #105, 2.500000000000000000, 0.7853981633974504994 ) ;
#26 = ADVANCED_BREP_SHAPE_REPRESENTATION ( '37136', ( #50, #54, #182 ), #21 ) ;
#27 = PERSON_AND_ORGANIZATION ( #69, #155 ) ;
#28 = ORIENTED_EDGE ( 'NONE', *, *, #121, .T. ) ;
#29 = CC_DESIGN_PERSON_AND_ORGANIZATION_ASSIGNMENT ( #98, #169, ( #46 ) ) ;
#30 = FACE_BOUND ( 'NONE', #193, .T. ) ;
#31 = DIRECTION ( 'NONE',  ( 4.275831445896958607E-31, 1.000000000000000000, 1.224646799147353207E-16 ) ) ;
#32 = FACE_OUTER_BOUND ( 'NONE', #10, .T. ) ;
#33 = CIRCLE ( 'NONE', #151, 3.000000000000000000 ) ;
#34 = DIRECTION ( 'NONE',  ( -4.237045877651918877E-31, -1.000000000000000000, -1.192622389734054877E-16 ) ) ;
#35 = DIRECTION ( 'NONE',  ( 3.491481338843133355E-15, -0.0000000000000000000, 1.000000000000000000 ) ) ;
#36 = PERSON_AND_ORGANIZATION ( #69, #155 ) ;
#37 = LOCAL_TIME ( 10, 16, 5.000000000000000000, #224 ) ;
#38 = FACE_OUTER_BOUND ( 'NONE', #146, .T. ) ;
#39 = DATE_AND_TIME ( #58, #37 ) ;
#40 = VERTEX_POINT ( 'NONE', #226 ) ;
#41 = APPROVAL_DATE_TIME ( #153, #42 ) ;
#42 = APPROVAL ( #115, 'UNSPECIFIED' ) ;
#43 = CARTESIAN_POINT ( 'NONE',  ( 0.0000000000000000000, 0.0000000000000000000, 0.0000000000000000000 ) ) ;
#44 = ORIENTED_EDGE ( 'NONE', *, *, #62, .F. ) ;
#45 = CIRCLE ( 'NONE', #66, 2.499999999999996891 ) ;
#46 = PRODUCT_DEFINITION_FORMATION_WITH_SPECIFIED_SOURCE ( 'ANY', '', #78, .NOT_KNOWN. ) ;
#47 = AXIS2_PLACEMENT_3D ( 'NONE', #57, #13, #164 ) ;
#48 = ADVANCED_FACE ( 'NONE', ( #127, #202 ), #148, .T. ) ;
#49 = DIRECTION ( 'NONE',  ( 0.0000000000000000000, 1.000000000000000000, 0.0000000000000000000 ) ) ;
#50 = MANIFOLD_SOLID_BREP ( 'Corps-Déplacer/Copier1[1]', #217 ) ;
#51 = DIRECTION ( 'NONE',  ( 3.491481338843133355E-15, -1.217917285207545432E-16, 1.000000000000000000 ) ) ;
#52 = CARTESIAN_POINT ( 'NONE',  ( 5.510913009090916710E-14, 0.0000000000000000000, 15.78388218141501476 ) ) ;
#53 = EDGE_CURVE ( 'NONE', #6, #6, #152, .T. ) ;
#54 = MANIFOLD_SOLID_BREP ( 'Corps-Déplacer/Copier1[2]', #194 ) ;
#55 = FACE_OUTER_BOUND ( 'NONE', #140, .T. ) ;
#56 = CALENDAR_DATE ( 2021, 17, 11 ) ;
#57 = CARTESIAN_POINT ( 'NONE',  ( -6.413747168845438786E-31, 0.0000000000000000000, -1.836970198721029934E-16 ) ) ;
#58 = CALENDAR_DATE ( 2021, 17, 11 ) ;
#59 = FACE_BOUND ( 'NONE', #89, .T. ) ;
#60 = CC_DESIGN_SECURITY_CLASSIFICATION ( #131, ( #46 ) ) ;
#61 = CARTESIAN_POINT ( 'NONE',  ( 2.500000000000042633, 0.0000000000000000000, 12.99999999999998934 ) ) ;
#62 = EDGE_CURVE ( 'NONE', #5, #5, #33, .T. ) ;
#63 = CALENDAR_DATE ( 2021, 17, 11 ) ;
#64 = EDGE_LOOP ( 'NONE', ( #158 ) ) ;
#65 = EDGE_LOOP ( 'NONE', ( #12 ) ) ;
#66 = AXIS2_PLACEMENT_3D ( 'NONE', #73, #220, #195 ) ;
#67 = APPLICATION_CONTEXT ( 'configuration controlled 3d designs of mechanical parts and assemblies' ) ;
#68 = TOROIDAL_SURFACE ( 'NONE', #171, 10.49999999999999822, 8.000000000000000000 ) ;
#69 = PERSON ( 'UNSPECIFIED', 'UNSPECIFIED', 'UNSPECIFIED', ('UNSPECIFIED'), ('UNSPECIFIED'), ('UNSPECIFIED') ) ;
#70 = ADVANCED_FACE ( 'NONE', ( #30, #147 ), #237, .T. ) ;
#71 = DIRECTION ( 'NONE',  ( 0.0000000000000000000, 1.000000000000000000, 0.0000000000000000000 ) ) ;
#72 = CARTESIAN_POINT ( 'NONE',  ( 4.538925740496073362E-14, 2.249639673992783675E-32, 13.00000000000000000 ) ) ;
#73 = CARTESIAN_POINT ( 'NONE',  ( 4.538925740496072731E-14, 0.0000000000000000000, 12.99999999999999822 ) ) ;
#74 = EDGE_LOOP ( 'NONE', ( #177 ) ) ;
#75 = ORIENTED_EDGE ( 'NONE', *, *, #121, .F. ) ;
#76 = VERTEX_POINT ( 'NONE', #24 ) ;
#77 = CC_DESIGN_DATE_AND_TIME_ASSIGNMENT ( #20, #167, ( #8 ) ) ;
#78 = PRODUCT ( '37136', '37136', '', ( #103 ) ) ;
#79 = AXIS2_PLACEMENT_3D ( 'NONE', #163, #236, #49 ) ;
#80 = DIRECTION ( 'NONE',  ( -4.237045877651918877E-31, -1.000000000000000000, -1.192622389734054877E-16 ) ) ;
#81 = APPLICATION_CONTEXT ( 'configuration controlled 3d designs of mechanical parts and assemblies' ) ;
#82 = DATE_TIME_ROLE ( 'classification_date' ) ;
#83 = ADVANCED_FACE ( 'NONE', ( #55, #32 ), #186, .T. ) ;
#84 = COORDINATED_UNIVERSAL_TIME_OFFSET ( 1, 0, .AHEAD. ) ;
#85 = AXIS2_PLACEMENT_3D ( 'NONE', #196, #107, #31 ) ;
#86 = ORIENTED_EDGE ( 'NONE', *, *, #53, .T. ) ;
#87 = APPROVAL_ROLE ( '' ) ;
#88 = ORIENTED_EDGE ( 'NONE', *, *, #62, .T. ) ;
#89 = EDGE_LOOP ( 'NONE', ( #11 ) ) ;
#90 = CC_DESIGN_PERSON_AND_ORGANIZATION_ASSIGNMENT ( #27, #101, ( #78 ) ) ;
#91 = DIRECTION ( 'NONE',  ( -3.491481338843133355E-15, 1.224646799147353207E-16, -1.000000000000000000 ) ) ;
#92 = DIRECTION ( 'NONE',  ( 1.000000000000000000, 0.0000000000000000000, -3.491481338843133355E-15 ) ) ;
#93 = CARTESIAN_POINT ( 'NONE',  ( 1.972686956446370283E-13, -6.919254415182544548E-15, 56.49999999999999289 ) ) ;
#94 = FACE_OUTER_BOUND ( 'NONE', #64, .T. ) ;
#95 = PLANE ( 'NONE',  #181 ) ;
#96 = CARTESIAN_POINT ( 'NONE',  ( -6.413747168845438786E-31, 2.249639673992786412E-32, -1.836970198721029934E-16 ) ) ;
#97 = EDGE_CURVE ( 'NONE', #40, #40, #223, .T. ) ;
#98 = PERSON_AND_ORGANIZATION ( #69, #155 ) ;
#99 = AXIS2_PLACEMENT_3D ( 'NONE', #93, #91, #71 ) ;
#100 = APPROVAL_ROLE ( '' ) ;
#101 = PERSON_AND_ORGANIZATION_ROLE ( 'design_owner' ) ;
#102 = EDGE_LOOP ( 'NONE', ( #86 ) ) ;
#103 = MECHANICAL_CONTEXT ( 'NONE', #67, 'mechanical' ) ;
#104 = DIRECTION ( 'NONE',  ( 4.275831445896959482E-31, 1.000000000000000000, 1.224646799147353207E-16 ) ) ;
#105 = AXIS2_PLACEMENT_3D ( 'NONE', #136, #116, #80 ) ;
#106 = DIRECTION ( 'NONE',  ( 3.491481338843133355E-15, -1.217917285207545432E-16, 1.000000000000000000 ) ) ;
#107 = DIRECTION ( 'NONE',  ( -3.491481338843133355E-15, 1.224646799147353207E-16, -1.000000000000000000 ) ) ;
#108 = DIRECTION ( 'NONE',  ( 0.0000000000000000000, 1.000000000000000000, 0.0000000000000000000 ) ) ;
#109 = CC_DESIGN_DATE_AND_TIME_ASSIGNMENT ( #165, #82, ( #131 ) ) ;
#110 = CARTESIAN_POINT ( 'NONE',  ( 2.500000000000042633, 0.0000000000000000000, 12.99999999999998934 ) ) ;
#111 = LOCAL_TIME ( 10, 16, 5.000000000000000000, #84 ) ;
#112 = PERSON_AND_ORGANIZATION_ROLE ( 'classification_officer' ) ;
#113 = VERTEX_POINT ( 'NONE', #243 ) ;
#114 = PRODUCT_RELATED_PRODUCT_CATEGORY ( 'detail', '', ( #78 ) ) ;
#115 = APPROVAL_STATUS ( 'not_yet_approved' ) ;
#116 = DIRECTION ( 'NONE',  ( 3.491481338843133355E-15, -1.217917285207545432E-16, 1.000000000000000000 ) ) ;
#117 = AXIS2_PLACEMENT_3D ( 'NONE', #14, #106, #34 ) ;
#118 = DESIGN_CONTEXT ( 'detailed design', #81, 'design' ) ;
#119 = DIRECTION ( 'NONE',  ( 1.000000000000000000, 0.0000000000000000000, 0.0000000000000000000 ) ) ;
#120 = LOCAL_TIME ( 10, 16, 5.000000000000000000, #221 ) ;
#121 = EDGE_CURVE ( 'NONE', #113, #113, #15, .T. ) ;
#122 = EDGE_LOOP ( 'NONE', ( #157 ) ) ;
#123 = PLANE ( 'NONE',  #85 ) ;
#124 = DIRECTION ( 'NONE',  ( -4.252335473556634944E-31, -1.000000000000000000, -1.217917285207545432E-16 ) ) ;
#125 = AXIS2_PLACEMENT_3D ( 'NONE', #96, #168, #204 ) ;
#126 = DIRECTION ( 'NONE',  ( -1.000000000000000000, 0.0000000000000000000, 3.469446951953614189E-15 ) ) ;
#127 = FACE_OUTER_BOUND ( 'NONE', #122, .T. ) ;
#128 = PERSON_AND_ORGANIZATION_ROLE ( 'creator' ) ;
#129 = ADVANCED_FACE ( 'NONE', ( #94 ), #95, .F. ) ;
#130 = PERSON_AND_ORGANIZATION_ROLE ( 'design_supplier' ) ;
#131 = SECURITY_CLASSIFICATION ( '', '', #172 ) ;
#132 = APPROVAL_ROLE ( '' ) ;
#133 = AXIS2_PLACEMENT_3D ( 'NONE', #215, #51, #124 ) ;
#134 = PERSON_AND_ORGANIZATION ( #69, #155 ) ;
#135 = PERSON_AND_ORGANIZATION ( #69, #155 ) ;
#136 = CARTESIAN_POINT ( 'NONE',  ( 6.982962677686259808E-16, -2.435834570415088461E-17, 0.1999999999999997891 ) ) ;
#137 = APPLICATION_PROTOCOL_DEFINITION ( 'international standard', 'config_control_design', 1994, #67 ) ;
#138 = ADVANCED_FACE ( 'NONE', ( #218, #239 ), #68, .F. ) ;
#139 = EDGE_LOOP ( 'NONE', ( #206 ) ) ;
#140 = EDGE_LOOP ( 'NONE', ( #212 ) ) ;
#141 = EDGE_CURVE ( 'NONE', #76, #76, #187, .T. ) ;
#142 = EDGE_LOOP ( 'NONE', ( #44 ) ) ;
#143 = APPROVAL_PERSON_ORGANIZATION ( #22, #4, #100 ) ;
#144 = CARTESIAN_POINT ( 'NONE',  ( 4.538925740496073362E-14, 0.0000000000000000000, 13.00000000000000000 ) ) ;
#145 = DIRECTION ( 'NONE',  ( 3.491481338843133355E-15, -1.224646799147353207E-16, 1.000000000000000000 ) ) ;
#146 = EDGE_LOOP ( 'NONE', ( #231 ) ) ;
#147 = FACE_OUTER_BOUND ( 'NONE', #232, .T. ) ;
#148 = CYLINDRICAL_SURFACE ( 'NONE', #47, 2.499999999999998224 ) ;
#149 = APPROVAL_DATE_TIME ( #207, #229 ) ;
#150 = VERTEX_POINT ( 'NONE', #222 ) ;
#151 = AXIS2_PLACEMENT_3D ( 'NONE', #52, #35, #126 ) ;
#152 = CIRCLE ( 'NONE', #209, 2.499999999999996891 ) ;
#153 = DATE_AND_TIME ( #1, #16 ) ;
#154 = CARTESIAN_POINT ( 'NONE',  ( -2.999999999999944933, 0.0000000000000000000, 15.78388218141502364 ) ) ;
#155 = ORGANIZATION ( 'UNSPECIFIED', 'UNSPECIFIED', '' ) ;
#156 = DIRECTION ( 'NONE',  ( 0.0000000000000000000, 0.0000000000000000000, 1.000000000000000000 ) ) ;
#157 = ORIENTED_EDGE ( 'NONE', *, *, #53, .F. ) ;
#158 = ORIENTED_EDGE ( 'NONE', *, *, #18, .F. ) ;
#159 = CARTESIAN_POINT ( 'NONE',  ( 4.538925740496073362E-14, 2.249639673992783675E-32, 13.00000000000000000 ) ) ;
#160 = CC_DESIGN_APPROVAL ( #42, ( #131 ) ) ;
#161 = LOCAL_TIME ( 10, 16, 5.000000000000000000, #203 ) ;
#162 = FACE_OUTER_BOUND ( 'NONE', #208, .T. ) ;
#163 = CARTESIAN_POINT ( 'NONE',  ( 1.972686956446370283E-13, -6.919254415182544548E-15, 56.49999999999999289 ) ) ;
#164 = DIRECTION ( 'NONE',  ( 1.000000000000000000, 0.0000000000000000000, -3.491481338843133355E-15 ) ) ;
#165 = DATE_AND_TIME ( #170, #161 ) ;
#166 = DIRECTION ( 'NONE',  ( -4.275831445896958607E-31, -1.000000000000000000, -1.224646799147353207E-16 ) ) ;
#167 = DATE_TIME_ROLE ( 'creation_date' ) ;
#168 = DIRECTION ( 'NONE',  ( -3.491481338843133355E-15, 1.224646799147353207E-16, -1.000000000000000000 ) ) ;
#169 = PERSON_AND_ORGANIZATION_ROLE ( 'creator' ) ;
#170 = CALENDAR_DATE ( 2021, 17, 11 ) ;
#171 = AXIS2_PLACEMENT_3D ( 'NONE', #144, #214, #92 ) ;
#172 = SECURITY_CLASSIFICATION_LEVEL ( 'unclassified' ) ;
#173 = ADVANCED_FACE ( 'NONE', ( #162 ), #123, .F. ) ;
#174 =( NAMED_UNIT ( * ) SI_UNIT ( $, .STERADIAN. ) SOLID_ANGLE_UNIT ( ) );
#175 = APPROVAL_PERSON_ORGANIZATION ( #36, #42, #132 ) ;
#176 = UNCERTAINTY_MEASURE_WITH_UNIT (LENGTH_MEASURE( 1.000000000000000082E-05 ), #192, 'distance_accuracy_value', 'NONE');
#177 = ORIENTED_EDGE ( 'NONE', *, *, #184, .F. ) ;
#178 = DIRECTION ( 'NONE',  ( 1.000000000000000000, 0.0000000000000000000, -3.469446951953618528E-15 ) ) ;
#179 = ADVANCED_FACE ( 'NONE', ( #238 ), #240, .T. ) ;
#180 = DIRECTION ( 'NONE',  ( -3.491481338843133355E-15, 1.224646799147353207E-16, -1.000000000000000000 ) ) ;
#181 = AXIS2_PLACEMENT_3D ( 'NONE', #159, #183, #166 ) ;
#182 = AXIS2_PLACEMENT_3D ( 'NONE', #43, #156, #119 ) ;
#183 = DIRECTION ( 'NONE',  ( 3.491481338843133355E-15, -1.224646799147353207E-16, 1.000000000000000000 ) ) ;
#184 = EDGE_CURVE ( 'NONE', #150, #150, #200, .T. ) ;
#185 = DIRECTION ( 'NONE',  ( -4.275831445896958607E-31, -1.000000000000000000, -1.224646799147353207E-16 ) ) ;
#186 = CYLINDRICAL_SURFACE ( 'NONE', #234, 3.000000000000000000 ) ;
#187 = CIRCLE ( 'NONE', #79, 2.999999999999999556 ) ;
#188 = APPROVAL_DATE_TIME ( #39, #4 ) ;
#189 = COORDINATED_UNIVERSAL_TIME_OFFSET ( 1, 0, .AHEAD. ) ;
#190 = CC_DESIGN_PERSON_AND_ORGANIZATION_ASSIGNMENT ( #135, #112, ( #131 ) ) ;
#191 = VERTEX_POINT ( 'NONE', #61 ) ;
#192 =( LENGTH_UNIT ( ) NAMED_UNIT ( * ) SI_UNIT ( .MILLI., .METRE. ) );
#193 = EDGE_LOOP ( 'NONE', ( #28 ) ) ;
#194 = CLOSED_SHELL ( 'NONE', ( #48, #179, #241, #211 ) ) ;
#195 = DIRECTION ( 'NONE',  ( 1.000000000000000000, 0.0000000000000000000, -3.469446951953618528E-15 ) ) ;
#196 = CARTESIAN_POINT ( 'NONE',  ( 1.990144363140586139E-13, 1.874699728327311610E-32, 57.00000000000000000 ) ) ;
#197 = DIRECTION ( 'NONE',  ( 3.491481338843133355E-15, -0.0000000000000000000, 1.000000000000000000 ) ) ;
#198 = CC_DESIGN_PERSON_AND_ORGANIZATION_ASSIGNMENT ( #219, #128, ( #8 ) ) ;
#199 = AXIS2_PLACEMENT_3D ( 'NONE', #19, #180, #108 ) ;
#200 = CIRCLE ( 'NONE', #133, 2.299999999999998934 ) ;
#201 = DIRECTION ( 'NONE',  ( -3.491481338843133355E-15, 1.224646799147353207E-16, -1.000000000000000000 ) ) ;
#202 = FACE_OUTER_BOUND ( 'NONE', #139, .T. ) ;
#203 = COORDINATED_UNIVERSAL_TIME_OFFSET ( 1, 0, .AHEAD. ) ;
#204 = DIRECTION ( 'NONE',  ( 4.275831445896958607E-31, 1.000000000000000000, 1.224646799147353207E-16 ) ) ;
#205 = PERSON_AND_ORGANIZATION ( #69, #155 ) ;
#206 = ORIENTED_EDGE ( 'NONE', *, *, #97, .T. ) ;
#207 = DATE_AND_TIME ( #63, #111 ) ;
#208 = EDGE_LOOP ( 'NONE', ( #75 ) ) ;
#209 = AXIS2_PLACEMENT_3D ( 'NONE', #216, #197, #178 ) ;
#210 = CC_DESIGN_APPROVAL ( #4, ( #46 ) ) ;
#211 = ADVANCED_FACE ( 'NONE', ( #2 ), #225, .T. ) ;
#212 = ORIENTED_EDGE ( 'NONE', *, *, #141, .T. ) ;
#213 = APPROVAL_PERSON_ORGANIZATION ( #205, #229, #87 ) ;
#214 = DIRECTION ( 'NONE',  ( 3.491481338843133355E-15, -0.0000000000000000000, 1.000000000000000000 ) ) ;
#215 = CARTESIAN_POINT ( 'NONE',  ( -9.780371589180255992E-31, 3.411641781296828872E-32, -2.801209755977353163E-16 ) ) ;
#216 = CARTESIAN_POINT ( 'NONE',  ( 4.538925740496072731E-14, 0.0000000000000000000, 12.99999999999999822 ) ) ;
#217 = CLOSED_SHELL ( 'NONE', ( #83, #70, #173, #138, #129 ) ) ;
#218 = FACE_OUTER_BOUND ( 'NONE', #142, .T. ) ;
#219 = PERSON_AND_ORGANIZATION ( #69, #155 ) ;
#220 = DIRECTION ( 'NONE',  ( 3.491481338843133355E-15, -0.0000000000000000000, 1.000000000000000000 ) ) ;
#221 = COORDINATED_UNIVERSAL_TIME_OFFSET ( 1, 0, .AHEAD. ) ;
#222 = CARTESIAN_POINT ( 'NONE',  ( -1.956074317836051198E-30, -2.299999999999998934, -5.602419511954706327E-16 ) ) ;
#223 = CIRCLE ( 'NONE', #117, 2.500000000000000000 ) ;
#224 = COORDINATED_UNIVERSAL_TIME_OFFSET ( 1, 0, .AHEAD. ) ;
#225 = PLANE ( 'NONE',  #125 ) ;
#226 = CARTESIAN_POINT ( 'NONE',  ( 6.982962677686248961E-16, -2.500000000000000000, 0.1999999999999994837 ) ) ;
#227 = APPROVAL_STATUS ( 'not_yet_approved' ) ;
#228 = ORIENTED_EDGE ( 'NONE', *, *, #141, .F. ) ;
#229 = APPROVAL ( #227, 'UNSPECIFIED' ) ;
#230 =( NAMED_UNIT ( * ) PLANE_ANGLE_UNIT ( ) SI_UNIT ( $, .RADIAN. ) );
#231 = ORIENTED_EDGE ( 'NONE', *, *, #97, .F. ) ;
#232 = EDGE_LOOP ( 'NONE', ( #228 ) ) ;
#233 = AXIS2_PLACEMENT_3D ( 'NONE', #72, #145, #185 ) ;
#234 = AXIS2_PLACEMENT_3D ( 'NONE', #17, #201, #104 ) ;
#235 = CC_DESIGN_PERSON_AND_ORGANIZATION_ASSIGNMENT ( #134, #130, ( #46 ) ) ;
#236 = DIRECTION ( 'NONE',  ( -3.491481338843133355E-15, 1.224646799147353207E-16, -1.000000000000000000 ) ) ;
#237 = CONICAL_SURFACE ( 'NONE', #99, 2.999999999999999556, 0.7853981633974405074 ) ;
#238 = FACE_OUTER_BOUND ( 'NONE', #102, .T. ) ;
#239 = FACE_OUTER_BOUND ( 'NONE', #65, .T. ) ;
#240 = PLANE ( 'NONE',  #233 ) ;
#241 = ADVANCED_FACE ( 'NONE', ( #59, #38 ), #25, .T. ) ;
#242 = APPROVAL_STATUS ( 'not_yet_approved' ) ;
#243 = CARTESIAN_POINT ( 'NONE',  ( 1.990144363140586139E-13, 2.499999999999992895, 57.00000000000000000 ) ) ;
ENDSEC;
END-ISO-10303-21;
