ISO-10303-21;
HEADER;
FILE_DESCRIPTION (( 'STEP AP203' ),
    '1' );
FILE_NAME ('3708.step',
    '2021-12-06T12:59:29',
    ( '' ),
    ( '' ),
    'SwSTEP 2.0',
    'SolidWorks 2019',
    '' );
FILE_SCHEMA (( 'CONFIG_CONTROL_DESIGN' ));
ENDSEC;

DATA;
#1 = APPROVAL_DATE_TIME ( #84, #39 ) ;
#2 = DIRECTION ( 'NONE',  ( 3.491481338843133355E-15, -1.224646799147352714E-16, 1.000000000000000000 ) ) ;
#3 = DATE_TIME_ROLE ( 'classification_date' ) ;
#4 = DIRECTION ( 'NONE',  ( -3.491481338843133355E-15, 1.224646799147352714E-16, -1.000000000000000000 ) ) ;
#5 = APPROVAL_STATUS ( 'not_yet_approved' ) ;
#6 = PERSON ( 'UNSPECIFIED', 'UNSPECIFIED', 'UNSPECIFIED', ('UNSPECIFIED'), ('UNSPECIFIED'), ('UNSPECIFIED') ) ;
#7 = CARTESIAN_POINT ( 'NONE',  ( 0.0000000000000000000, 0.0000000000000000000, 0.0000000000000000000 ) ) ;
#8 = LOCAL_TIME ( 13, 59, 29.00000000000000000, #65 ) ;
#9 = DIRECTION ( 'NONE',  ( 4.622231866529366047E-31, 1.000000000000000000, 1.301042606982605321E-16 ) ) ;
#10 = CARTESIAN_POINT ( 'NONE',  ( 0.0000000000000000000, 7.500000000000000000, 0.0000000000000000000 ) ) ;
#11 = CC_DESIGN_PERSON_AND_ORGANIZATION_ASSIGNMENT ( #16, #80, ( #126 ) ) ;
#12 = COORDINATED_UNIVERSAL_TIME_OFFSET ( 1, 0, .AHEAD. ) ;
#13 = DIRECTION ( 'NONE',  ( -3.491481338843133355E-15, 1.224646799147352714E-16, -1.000000000000000000 ) ) ;
#14 = ORIENTED_EDGE ( 'NONE', *, *, #63, .F. ) ;
#15 = DESIGN_CONTEXT ( 'detailed design', #117, 'design' ) ;
#16 = PERSON_AND_ORGANIZATION ( #6, #141 ) ;
#17 = AXIS2_PLACEMENT_3D ( 'NONE', #124, #139, #73 ) ;
#18 = EDGE_LOOP ( 'NONE', ( #85 ) ) ;
#19 = SECURITY_CLASSIFICATION_LEVEL ( 'unclassified' ) ;
#20 = APPROVAL ( #140, 'UNSPECIFIED' ) ;
#21 = DIRECTION ( 'NONE',  ( -3.491481338843133355E-15, 1.224646799147352714E-16, -1.000000000000000000 ) ) ;
#22 = CC_DESIGN_DATE_AND_TIME_ASSIGNMENT ( #71, #3, ( #126 ) ) ;
#23 = CYLINDRICAL_SURFACE ( 'NONE', #17, 2.500000000000000444 ) ;
#24 = CIRCLE ( 'NONE', #113, 2.500000000000000444 ) ;
#25 = PRODUCT_DEFINITION_SHAPE ( 'NONE', 'NONE',  #142 ) ;
#26 = DIRECTION ( 'NONE',  ( 4.275831445896956855E-31, 1.000000000000000000, 1.224646799147352961E-16 ) ) ;
#27 = LOCAL_TIME ( 13, 59, 29.00000000000000000, #144 ) ;
#28 = DIRECTION ( 'NONE',  ( 4.365441207277734308E-31, 1.000000000000000000, 1.228762462150238276E-16 ) ) ;
#29 = AXIS2_PLACEMENT_3D ( 'NONE', #121, #21, #110 ) ;
#30 = CALENDAR_DATE ( 2021, 6, 12 ) ;
#31 = CALENDAR_DATE ( 2021, 6, 12 ) ;
#32 = CARTESIAN_POINT ( 'NONE',  ( 0.0000000000000000000, 0.0000000000000000000, 0.0000000000000000000 ) ) ;
#33 = CALENDAR_DATE ( 2021, 6, 12 ) ;
#34 = EDGE_LOOP ( 'NONE', ( #147 ) ) ;
#35 = CC_DESIGN_PERSON_AND_ORGANIZATION_ASSIGNMENT ( #104, #46, ( #166 ) ) ;
#36 = VERTEX_POINT ( 'NONE', #59 ) ;
#37 = FACE_OUTER_BOUND ( 'NONE', #105, .T. ) ;
#38 = PLANE ( 'NONE',  #48 ) ;
#39 = APPROVAL ( #146, 'UNSPECIFIED' ) ;
#40 = PERSON_AND_ORGANIZATION ( #6, #141 ) ;
#41 = ORIENTED_EDGE ( 'NONE', *, *, #109, .T. ) ;
#42 = CALENDAR_DATE ( 2021, 6, 12 ) ;
#43 = CC_DESIGN_PERSON_AND_ORGANIZATION_ASSIGNMENT ( #40, #89, ( #122 ) ) ;
#44 = DIRECTION ( 'NONE',  ( 4.275831445896956855E-31, 1.000000000000000000, 1.224646799147352468E-16 ) ) ;
#45 = PLANE ( 'NONE',  #29 ) ;
#46 = PERSON_AND_ORGANIZATION_ROLE ( 'design_owner' ) ;
#47 = CC_DESIGN_SECURITY_CLASSIFICATION ( #126, ( #122 ) ) ;
#48 = AXIS2_PLACEMENT_3D ( 'NONE', #154, #2, #130 ) ;
#49 =( NAMED_UNIT ( * ) PLANE_ANGLE_UNIT ( ) SI_UNIT ( $, .RADIAN. ) );
#50 =( GEOMETRIC_REPRESENTATION_CONTEXT ( 3 ) GLOBAL_UNCERTAINTY_ASSIGNED_CONTEXT ( ( #83 ) ) GLOBAL_UNIT_ASSIGNED_CONTEXT ( ( #87, #49, #55 ) ) REPRESENTATION_CONTEXT ( 'NONE', 'WORKASPACE' ) );
#51 = FACE_BOUND ( 'NONE', #90, .T. ) ;
#52 = AXIS2_PLACEMENT_3D ( 'NONE', #56, #4, #44 ) ;
#53 = PERSON_AND_ORGANIZATION ( #6, #141 ) ;
#54 = ADVANCED_FACE ( 'NONE', ( #67, #163 ), #143, .T. ) ;
#55 =( NAMED_UNIT ( * ) SI_UNIT ( $, .STERADIAN. ) SOLID_ANGLE_UNIT ( ) );
#56 = CARTESIAN_POINT ( 'NONE',  ( -3.206873584422717641E-30, 1.124819836996392221E-31, -9.184850993605144000E-16 ) ) ;
#57 = APPROVAL_ROLE ( '' ) ;
#58 = ORIENTED_EDGE ( 'NONE', *, *, #109, .F. ) ;
#59 = CARTESIAN_POINT ( 'NONE',  ( 1.396592535537253539E-15, 7.500000000000000000, 0.4000000000000000222 ) ) ;
#60 = DIRECTION ( 'NONE',  ( 1.000000000000000000, 0.0000000000000000000, 0.0000000000000000000 ) ) ;
#61 = DIRECTION ( 'NONE',  ( -3.491481338843133355E-15, 1.224646799147352714E-16, -1.000000000000000000 ) ) ;
#62 = CARTESIAN_POINT ( 'NONE',  ( -1.068957861474239389E-30, 3.749399456654641830E-32, -3.061616997868382648E-16 ) ) ;
#63 = EDGE_CURVE ( 'NONE', #152, #152, #95, .T. ) ;
#64 = CC_DESIGN_APPROVAL ( #39, ( #122 ) ) ;
#65 = COORDINATED_UNIVERSAL_TIME_OFFSET ( 1, 0, .AHEAD. ) ;
#66 = CARTESIAN_POINT ( 'NONE',  ( 1.396592535537252356E-15, -4.898587196589406912E-17, 0.3999999999999996891 ) ) ;
#67 = FACE_OUTER_BOUND ( 'NONE', #34, .T. ) ;
#68 = AXIS2_PLACEMENT_3D ( 'NONE', #81, #13, #28 ) ;
#69 = PERSON_AND_ORGANIZATION ( #6, #141 ) ;
#70 = FACE_OUTER_BOUND ( 'NONE', #103, .T. ) ;
#71 = DATE_AND_TIME ( #96, #77 ) ;
#72 = ADVANCED_FACE ( 'NONE', ( #70, #107 ), #45, .T. ) ;
#73 = DIRECTION ( 'NONE',  ( 4.275831445896956855E-31, 1.000000000000000000, 1.224646799147352961E-16 ) ) ;
#74 = APPROVAL_PERSON_ORGANIZATION ( #114, #39, #91 ) ;
#75 = FACE_OUTER_BOUND ( 'NONE', #131, .T. ) ;
#76 = ADVANCED_BREP_SHAPE_REPRESENTATION ( '3708', ( #145, #169 ), #50 ) ;
#77 = LOCAL_TIME ( 13, 59, 29.00000000000000000, #129 ) ;
#78 = AXIS2_PLACEMENT_3D ( 'NONE', #66, #88, #9 ) ;
#79 = DATE_AND_TIME ( #30, #138 ) ;
#80 = PERSON_AND_ORGANIZATION_ROLE ( 'classification_officer' ) ;
#81 = CARTESIAN_POINT ( 'NONE',  ( 1.396592535537250187E-15, -4.898587196589399517E-17, 0.3999999999999990785 ) ) ;
#82 = DIRECTION ( 'NONE',  ( -3.491481338843133355E-15, 1.224646799147352714E-16, -1.000000000000000000 ) ) ;
#83 = UNCERTAINTY_MEASURE_WITH_UNIT (LENGTH_MEASURE( 1.000000000000000082E-05 ), #87, 'distance_accuracy_value', 'NONE');
#84 = DATE_AND_TIME ( #42, #27 ) ;
#85 = ORIENTED_EDGE ( 'NONE', *, *, #132, .F. ) ;
#86 = DATE_AND_TIME ( #33, #94 ) ;
#87 =( LENGTH_UNIT ( ) NAMED_UNIT ( * ) SI_UNIT ( .MILLI., .METRE. ) );
#88 = DIRECTION ( 'NONE',  ( -3.491481338843133355E-15, 1.224646799147352714E-16, -1.000000000000000000 ) ) ;
#89 = PERSON_AND_ORGANIZATION_ROLE ( 'design_supplier' ) ;
#90 = EDGE_LOOP ( 'NONE', ( #134 ) ) ;
#91 = APPROVAL_ROLE ( '' ) ;
#92 = DATE_TIME_ROLE ( 'creation_date' ) ;
#93 = EDGE_LOOP ( 'NONE', ( #58 ) ) ;
#94 = LOCAL_TIME ( 13, 59, 29.00000000000000000, #162 ) ;
#95 = CIRCLE ( 'NONE', #52, 7.500000000000000000 ) ;
#96 = CALENDAR_DATE ( 2021, 6, 12 ) ;
#97 = CARTESIAN_POINT ( 'NONE',  ( 0.0000000000000000000, 2.500000000000000444, 0.0000000000000000000 ) ) ;
#98 = PRODUCT_RELATED_PRODUCT_CATEGORY ( 'detail', '', ( #166 ) ) ;
#99 = CLOSED_SHELL ( 'NONE', ( #72, #54, #125, #112 ) ) ;
#100 = CC_DESIGN_PERSON_AND_ORGANIZATION_ASSIGNMENT ( #158, #133, ( #122 ) ) ;
#101 = APPLICATION_PROTOCOL_DEFINITION ( 'international standard', 'config_control_design', 1994, #111 ) ;
#102 = PERSON_AND_ORGANIZATION ( #6, #141 ) ;
#103 = EDGE_LOOP ( 'NONE', ( #161 ) ) ;
#104 = PERSON_AND_ORGANIZATION ( #6, #141 ) ;
#105 = EDGE_LOOP ( 'NONE', ( #41 ) ) ;
#106 = DIRECTION ( 'NONE',  ( 0.0000000000000000000, 0.0000000000000000000, 1.000000000000000000 ) ) ;
#107 = FACE_BOUND ( 'NONE', #93, .T. ) ;
#108 = CARTESIAN_POINT ( 'NONE',  ( 1.396592535537253539E-15, 2.500000000000000000, 0.4000000000000000222 ) ) ;
#109 = EDGE_CURVE ( 'NONE', #151, #151, #24, .T. ) ;
#110 = DIRECTION ( 'NONE',  ( 4.275831445896956855E-31, 1.000000000000000000, 1.224646799147352714E-16 ) ) ;
#111 = APPLICATION_CONTEXT ( 'configuration controlled 3d designs of mechanical parts and assemblies' ) ;
#112 = ADVANCED_FACE ( 'NONE', ( #37, #75 ), #23, .F. ) ;
#113 = AXIS2_PLACEMENT_3D ( 'NONE', #62, #61, #26 ) ;
#114 = PERSON_AND_ORGANIZATION ( #6, #141 ) ;
#115 = DATE_AND_TIME ( #31, #8 ) ;
#116 = DIRECTION ( 'NONE',  ( 4.275831445896956855E-31, 1.000000000000000000, 1.224646799147352468E-16 ) ) ;
#117 = APPLICATION_CONTEXT ( 'configuration controlled 3d designs of mechanical parts and assemblies' ) ;
#118 = APPLICATION_PROTOCOL_DEFINITION ( 'international standard', 'config_control_design', 1994, #117 ) ;
#119 = APPROVAL_DATE_TIME ( #86, #164 ) ;
#120 = APPROVAL_PERSON_ORGANIZATION ( #69, #164, #57 ) ;
#121 = CARTESIAN_POINT ( 'NONE',  ( -1.068957861474239214E-30, 2.500000000000000444, -3.061616997868381662E-16 ) ) ;
#122 = PRODUCT_DEFINITION_FORMATION_WITH_SPECIFIED_SOURCE ( 'ANY', '', #166, .NOT_KNOWN. ) ;
#123 = AXIS2_PLACEMENT_3D ( 'NONE', #32, #82, #116 ) ;
#124 = CARTESIAN_POINT ( 'NONE',  ( 0.0000000000000000000, 0.0000000000000000000, 0.0000000000000000000 ) ) ;
#125 = ADVANCED_FACE ( 'NONE', ( #51, #153 ), #38, .T. ) ;
#126 = SECURITY_CLASSIFICATION ( '', '', #19 ) ;
#127 = CIRCLE ( 'NONE', #78, 2.500000000000000000 ) ;
#128 = PERSON_AND_ORGANIZATION_ROLE ( 'creator' ) ;
#129 = COORDINATED_UNIVERSAL_TIME_OFFSET ( 1, 0, .AHEAD. ) ;
#130 = DIRECTION ( 'NONE',  ( -4.275831445896956855E-31, -1.000000000000000000, -1.224646799147352714E-16 ) ) ;
#131 = EDGE_LOOP ( 'NONE', ( #136 ) ) ;
#132 = EDGE_CURVE ( 'NONE', #36, #36, #165, .T. ) ;
#133 = PERSON_AND_ORGANIZATION_ROLE ( 'creator' ) ;
#134 = ORIENTED_EDGE ( 'NONE', *, *, #137, .T. ) ;
#135 = APPROVAL_ROLE ( '' ) ;
#136 = ORIENTED_EDGE ( 'NONE', *, *, #137, .F. ) ;
#137 = EDGE_CURVE ( 'NONE', #167, #167, #127, .T. ) ;
#138 = LOCAL_TIME ( 13, 59, 29.00000000000000000, #12 ) ;
#139 = DIRECTION ( 'NONE',  ( -3.491481338843133355E-15, 1.224646799147352714E-16, -1.000000000000000000 ) ) ;
#140 = APPROVAL_STATUS ( 'not_yet_approved' ) ;
#141 = ORGANIZATION ( 'UNSPECIFIED', 'UNSPECIFIED', '' ) ;
#142 = PRODUCT_DEFINITION ( 'UNKNOWN', '', #122, #15 ) ;
#143 = CYLINDRICAL_SURFACE ( 'NONE', #123, 7.500000000000000000 ) ;
#144 = COORDINATED_UNIVERSAL_TIME_OFFSET ( 1, 0, .AHEAD. ) ;
#145 = MANIFOLD_SOLID_BREP ( 'Corps-Déplacer/Copier1', #99 ) ;
#146 = APPROVAL_STATUS ( 'not_yet_approved' ) ;
#147 = ORIENTED_EDGE ( 'NONE', *, *, #132, .T. ) ;
#148 = CC_DESIGN_APPROVAL ( #164, ( #126 ) ) ;
#149 = SHAPE_DEFINITION_REPRESENTATION ( #25, #76 ) ;
#150 = APPROVAL_PERSON_ORGANIZATION ( #53, #20, #135 ) ;
#151 = VERTEX_POINT ( 'NONE', #97 ) ;
#152 = VERTEX_POINT ( 'NONE', #10 ) ;
#153 = FACE_OUTER_BOUND ( 'NONE', #18, .T. ) ;
#154 = CARTESIAN_POINT ( 'NONE',  ( 1.396592535537252356E-15, 2.500000000000000000, 0.3999999999999996891 ) ) ;
#155 = CC_DESIGN_APPROVAL ( #20, ( #142 ) ) ;
#156 = MECHANICAL_CONTEXT ( 'NONE', #111, 'mechanical' ) ;
#157 = CC_DESIGN_PERSON_AND_ORGANIZATION_ASSIGNMENT ( #102, #128, ( #142 ) ) ;
#158 = PERSON_AND_ORGANIZATION ( #6, #141 ) ;
#159 = EDGE_LOOP ( 'NONE', ( #14 ) ) ;
#160 = APPROVAL_DATE_TIME ( #79, #20 ) ;
#161 = ORIENTED_EDGE ( 'NONE', *, *, #63, .T. ) ;
#162 = COORDINATED_UNIVERSAL_TIME_OFFSET ( 1, 0, .AHEAD. ) ;
#163 = FACE_OUTER_BOUND ( 'NONE', #159, .T. ) ;
#164 = APPROVAL ( #5, 'UNSPECIFIED' ) ;
#165 = CIRCLE ( 'NONE', #68, 7.500000000000000000 ) ;
#166 = PRODUCT ( '3708', '3708', '', ( #156 ) ) ;
#167 = VERTEX_POINT ( 'NONE', #108 ) ;
#168 = CC_DESIGN_DATE_AND_TIME_ASSIGNMENT ( #115, #92, ( #142 ) ) ;
#169 = AXIS2_PLACEMENT_3D ( 'NONE', #7, #106, #60 ) ;
ENDSEC;
END-ISO-10303-21;
