ISO-10303-21;
HEADER;
FILE_DESCRIPTION (( 'STEP AP203' ),
    '1' );
FILE_NAME ('3707.step',
    '2021-12-06T12:59:28',
    ( '' ),
    ( '' ),
    'SwSTEP 2.0',
    'SolidWorks 2019',
    '' );
FILE_SCHEMA (( 'CONFIG_CONTROL_DESIGN' ));
ENDSEC;

DATA;
#1 = CYLINDRICAL_SURFACE ( 'NONE', #53, 7.500000000000000000 ) ;
#2 = SHAPE_DEFINITION_REPRESENTATION ( #56, #6 ) ;
#3 = CARTESIAN_POINT ( 'NONE',  ( 1.047444401652940204E-15, 7.500000000000000000, 0.3000000000000000444 ) ) ;
#4 = APPROVAL_DATE_TIME ( #21, #115 ) ;
#5 = CARTESIAN_POINT ( 'NONE',  ( -1.068957861474239214E-29, 2.500000000000000444, -3.061616997868381859E-15 ) ) ;
#6 = ADVANCED_BREP_SHAPE_REPRESENTATION ( '3707', ( #96, #40 ), #27 ) ;
#7 = DIRECTION ( 'NONE',  ( 1.000000000000000000, 0.0000000000000000000, 0.0000000000000000000 ) ) ;
#8 = APPROVAL_ROLE ( '' ) ;
#9 = CC_DESIGN_APPROVAL ( #24, ( #34 ) ) ;
#10 = CC_DESIGN_DATE_AND_TIME_ASSIGNMENT ( #88, #165, ( #11 ) ) ;
#11 = PRODUCT_DEFINITION ( 'UNKNOWN', '', #111, #123 ) ;
#12 = EDGE_LOOP ( 'NONE', ( #54 ) ) ;
#13 = AXIS2_PLACEMENT_3D ( 'NONE', #83, #17, #136 ) ;
#14 = PLANE ( 'NONE',  #149 ) ;
#15 = CC_DESIGN_PERSON_AND_ORGANIZATION_ASSIGNMENT ( #63, #64, ( #34 ) ) ;
#16 = VERTEX_POINT ( 'NONE', #163 ) ;
#17 = DIRECTION ( 'NONE',  ( -3.491481338843133355E-15, 1.224646799147353059E-15, -1.000000000000000000 ) ) ;
#18 = LOCAL_TIME ( 13, 59, 28.00000000000000000, #141 ) ;
#19 = CARTESIAN_POINT ( 'NONE',  ( 1.047444401652929554E-15, 2.500000000000000444, 0.2999999999999969913 ) ) ;
#20 = ORIENTED_EDGE ( 'NONE', *, *, #125, .T. ) ;
#21 = DATE_AND_TIME ( #127, #85 ) ;
#22 = CARTESIAN_POINT ( 'NONE',  ( 0.0000000000000000000, 0.0000000000000000000, 0.0000000000000000000 ) ) ;
#23 = SECURITY_CLASSIFICATION_LEVEL ( 'unclassified' ) ;
#24 = APPROVAL ( #80, 'UNSPECIFIED' ) ;
#25 = PERSON_AND_ORGANIZATION ( #103, #118 ) ;
#26 = ORIENTED_EDGE ( 'NONE', *, *, #76, .T. ) ;
#27 =( GEOMETRIC_REPRESENTATION_CONTEXT ( 3 ) GLOBAL_UNCERTAINTY_ASSIGNED_CONTEXT ( ( #153 ) ) GLOBAL_UNIT_ASSIGNED_CONTEXT ( ( #147, #120, #107 ) ) REPRESENTATION_CONTEXT ( 'NONE', 'WORKASPACE' ) );
#28 = CALENDAR_DATE ( 2021, 6, 12 ) ;
#29 = DIRECTION ( 'NONE',  ( -3.491481338843133355E-15, 1.224646799147353059E-15, -1.000000000000000000 ) ) ;
#30 = CARTESIAN_POINT ( 'NONE',  ( 0.0000000000000000000, 0.0000000000000000000, 0.0000000000000000000 ) ) ;
#31 = CC_DESIGN_PERSON_AND_ORGANIZATION_ASSIGNMENT ( #32, #87, ( #111 ) ) ;
#32 = PERSON_AND_ORGANIZATION ( #103, #118 ) ;
#33 = VERTEX_POINT ( 'NONE', #72 ) ;
#34 = SECURITY_CLASSIFICATION ( '', '', #23 ) ;
#35 = DIRECTION ( 'NONE',  ( -4.275831445896958256E-30, -1.000000000000000000, -1.224646799147353059E-15 ) ) ;
#36 = APPROVAL_DATE_TIME ( #37, #151 ) ;
#37 = DATE_AND_TIME ( #60, #18 ) ;
#38 = CIRCLE ( 'NONE', #128, 2.500000000000000888 ) ;
#39 = APPROVAL_STATUS ( 'not_yet_approved' ) ;
#40 = AXIS2_PLACEMENT_3D ( 'NONE', #22, #140, #7 ) ;
#41 = DATE_TIME_ROLE ( 'classification_date' ) ;
#42 = ORIENTED_EDGE ( 'NONE', *, *, #52, .T. ) ;
#43 = DATE_AND_TIME ( #28, #114 ) ;
#44 = DIRECTION ( 'NONE',  ( -3.491481338843133355E-15, 1.224646799147353059E-15, -1.000000000000000000 ) ) ;
#45 = DIRECTION ( 'NONE',  ( 4.288404009502245400E-30, 1.000000000000000000, 1.221534447667001597E-15 ) ) ;
#46 = CIRCLE ( 'NONE', #67, 2.500000000000000444 ) ;
#47 = FACE_BOUND ( 'NONE', #104, .T. ) ;
#48 = FACE_OUTER_BOUND ( 'NONE', #145, .T. ) ;
#49 = CC_DESIGN_PERSON_AND_ORGANIZATION_ASSIGNMENT ( #50, #61, ( #11 ) ) ;
#50 = PERSON_AND_ORGANIZATION ( #103, #118 ) ;
#51 = AXIS2_PLACEMENT_3D ( 'NONE', #73, #137, #97 ) ;
#52 = EDGE_CURVE ( 'NONE', #148, #148, #113, .T. ) ;
#53 = AXIS2_PLACEMENT_3D ( 'NONE', #30, #82, #57 ) ;
#54 = ORIENTED_EDGE ( 'NONE', *, *, #52, .F. ) ;
#55 = CALENDAR_DATE ( 2021, 6, 12 ) ;
#56 = PRODUCT_DEFINITION_SHAPE ( 'NONE', 'NONE',  #11 ) ;
#57 = DIRECTION ( 'NONE',  ( 4.275831445896958256E-30, 1.000000000000000000, 1.224646799147352862E-15 ) ) ;
#58 = ORIENTED_EDGE ( 'NONE', *, *, #98, .F. ) ;
#59 = EDGE_LOOP ( 'NONE', ( #162 ) ) ;
#60 = CALENDAR_DATE ( 2021, 6, 12 ) ;
#61 = PERSON_AND_ORGANIZATION_ROLE ( 'creator' ) ;
#62 = ADVANCED_FACE ( 'NONE', ( #81, #48 ), #1, .T. ) ;
#63 = PERSON_AND_ORGANIZATION ( #103, #118 ) ;
#64 = PERSON_AND_ORGANIZATION_ROLE ( 'classification_officer' ) ;
#65 = APPROVAL_PERSON_ORGANIZATION ( #25, #24, #130 ) ;
#66 = EDGE_LOOP ( 'NONE', ( #159 ) ) ;
#67 = AXIS2_PLACEMENT_3D ( 'NONE', #150, #68, #117 ) ;
#68 = DIRECTION ( 'NONE',  ( -3.491481338843133355E-15, 1.224646799147353059E-15, -1.000000000000000000 ) ) ;
#69 = VERTEX_POINT ( 'NONE', #119 ) ;
#70 = FACE_BOUND ( 'NONE', #168, .T. ) ;
#71 = CIRCLE ( 'NONE', #13, 7.500000000000000000 ) ;
#72 = CARTESIAN_POINT ( 'NONE',  ( 1.368455531567204171E-45, 2.500000000000000444, 0.0000000000000000000 ) ) ;
#73 = CARTESIAN_POINT ( 'NONE',  ( 0.0000000000000000000, 0.0000000000000000000, 0.0000000000000000000 ) ) ;
#74 = PERSON_AND_ORGANIZATION_ROLE ( 'design_supplier' ) ;
#75 = APPLICATION_PROTOCOL_DEFINITION ( 'international standard', 'config_control_design', 1994, #167 ) ;
#76 = EDGE_CURVE ( 'NONE', #33, #33, #46, .T. ) ;
#77 = COORDINATED_UNIVERSAL_TIME_OFFSET ( 1, 0, .AHEAD. ) ;
#78 = CC_DESIGN_PERSON_AND_ORGANIZATION_ASSIGNMENT ( #154, #164, ( #79 ) ) ;
#79 = PRODUCT ( '3707', '3707', '', ( #100 ) ) ;
#80 = APPROVAL_STATUS ( 'not_yet_approved' ) ;
#81 = FACE_OUTER_BOUND ( 'NONE', #93, .T. ) ;
#82 = DIRECTION ( 'NONE',  ( -3.491481338843133355E-15, 1.224646799147353059E-15, -1.000000000000000000 ) ) ;
#83 = CARTESIAN_POINT ( 'NONE',  ( -3.206873584422718342E-29, 1.124819836996393000E-29, -9.184850993605147156E-15 ) ) ;
#84 = CARTESIAN_POINT ( 'NONE',  ( 1.047444401652929554E-15, -3.673940397442021904E-16, 0.2999999999999969913 ) ) ;
#85 = LOCAL_TIME ( 13, 59, 28.00000000000000000, #122 ) ;
#86 = FACE_OUTER_BOUND ( 'NONE', #59, .T. ) ;
#87 = PERSON_AND_ORGANIZATION_ROLE ( 'creator' ) ;
#88 = DATE_AND_TIME ( #110, #132 ) ;
#89 = COORDINATED_UNIVERSAL_TIME_OFFSET ( 1, 0, .AHEAD. ) ;
#90 = APPLICATION_PROTOCOL_DEFINITION ( 'international standard', 'config_control_design', 1994, #156 ) ;
#91 = CC_DESIGN_APPROVAL ( #151, ( #11 ) ) ;
#92 = ADVANCED_FACE ( 'NONE', ( #161, #47 ), #95, .T. ) ;
#93 = EDGE_LOOP ( 'NONE', ( #42 ) ) ;
#94 = DIRECTION ( 'NONE',  ( 4.275831445896958256E-30, 1.000000000000000000, 1.224646799147353059E-15 ) ) ;
#95 = PLANE ( 'NONE',  #105 ) ;
#96 = MANIFOLD_SOLID_BREP ( 'Corps-Déplacer/Copier1', #109 ) ;
#97 = DIRECTION ( 'NONE',  ( 4.275831445896958256E-30, 1.000000000000000000, 1.224646799147353059E-15 ) ) ;
#98 = EDGE_CURVE ( 'NONE', #16, #16, #71, .T. ) ;
#99 = DIRECTION ( 'NONE',  ( 4.314083075427406910E-30, 1.000000000000000000, 1.214306433183764572E-15 ) ) ;
#100 = MECHANICAL_CONTEXT ( 'NONE', #156, 'mechanical' ) ;
#101 = PERSON_AND_ORGANIZATION ( #103, #118 ) ;
#102 = ADVANCED_FACE ( 'NONE', ( #106, #86 ), #138, .F. ) ;
#103 = PERSON ( 'UNSPECIFIED', 'UNSPECIFIED', 'UNSPECIFIED', ('UNSPECIFIED'), ('UNSPECIFIED'), ('UNSPECIFIED') ) ;
#104 = EDGE_LOOP ( 'NONE', ( #160 ) ) ;
#105 = AXIS2_PLACEMENT_3D ( 'NONE', #5, #146, #94 ) ;
#106 = FACE_OUTER_BOUND ( 'NONE', #121, .T. ) ;
#107 =( NAMED_UNIT ( * ) SI_UNIT ( $, .STERADIAN. ) SOLID_ANGLE_UNIT ( ) );
#108 = APPROVAL_ROLE ( '' ) ;
#109 = CLOSED_SHELL ( 'NONE', ( #92, #62, #166, #102 ) ) ;
#110 = CALENDAR_DATE ( 2021, 6, 12 ) ;
#111 = PRODUCT_DEFINITION_FORMATION_WITH_SPECIFIED_SOURCE ( 'ANY', '', #79, .NOT_KNOWN. ) ;
#112 = COORDINATED_UNIVERSAL_TIME_OFFSET ( 1, 0, .AHEAD. ) ;
#113 = CIRCLE ( 'NONE', #126, 7.500000000000000000 ) ;
#114 = LOCAL_TIME ( 13, 59, 28.00000000000000000, #112 ) ;
#115 = APPROVAL ( #39, 'UNSPECIFIED' ) ;
#116 = CARTESIAN_POINT ( 'NONE',  ( 1.047444401652908058E-15, -3.673940397441947455E-16, 0.2999999999999908851 ) ) ;
#117 = DIRECTION ( 'NONE',  ( 4.275831445896958256E-30, 1.000000000000000000, 1.224646799147353059E-15 ) ) ;
#118 = ORGANIZATION ( 'UNSPECIFIED', 'UNSPECIFIED', '' ) ;
#119 = CARTESIAN_POINT ( 'NONE',  ( 1.047444401652940204E-15, 2.500000000000000444, 0.3000000000000000444 ) ) ;
#120 =( NAMED_UNIT ( * ) PLANE_ANGLE_UNIT ( ) SI_UNIT ( $, .RADIAN. ) );
#121 = EDGE_LOOP ( 'NONE', ( #26 ) ) ;
#122 = COORDINATED_UNIVERSAL_TIME_OFFSET ( 1, 0, .AHEAD. ) ;
#123 = DESIGN_CONTEXT ( 'detailed design', #167, 'design' ) ;
#124 = PERSON_AND_ORGANIZATION ( #103, #118 ) ;
#125 = EDGE_CURVE ( 'NONE', #69, #69, #38, .T. ) ;
#126 = AXIS2_PLACEMENT_3D ( 'NONE', #116, #44, #45 ) ;
#127 = CALENDAR_DATE ( 2021, 6, 12 ) ;
#128 = AXIS2_PLACEMENT_3D ( 'NONE', #84, #29, #99 ) ;
#129 = CC_DESIGN_SECURITY_CLASSIFICATION ( #34, ( #111 ) ) ;
#130 = APPROVAL_ROLE ( '' ) ;
#131 = CC_DESIGN_PERSON_AND_ORGANIZATION_ASSIGNMENT ( #139, #74, ( #111 ) ) ;
#132 = LOCAL_TIME ( 13, 59, 28.00000000000000000, #89 ) ;
#133 = FACE_OUTER_BOUND ( 'NONE', #12, .T. ) ;
#134 = DIRECTION ( 'NONE',  ( 3.491481338843133355E-15, -1.224646799147353059E-15, 1.000000000000000000 ) ) ;
#135 = PRODUCT_RELATED_PRODUCT_CATEGORY ( 'detail', '', ( #79 ) ) ;
#136 = DIRECTION ( 'NONE',  ( 4.275831445896958256E-30, 1.000000000000000000, 1.224646799147352862E-15 ) ) ;
#137 = DIRECTION ( 'NONE',  ( -3.491481338843133355E-15, 1.224646799147353059E-15, -1.000000000000000000 ) ) ;
#138 = CYLINDRICAL_SURFACE ( 'NONE', #51, 2.500000000000000444 ) ;
#139 = PERSON_AND_ORGANIZATION ( #103, #118 ) ;
#140 = DIRECTION ( 'NONE',  ( 0.0000000000000000000, 0.0000000000000000000, 1.000000000000000000 ) ) ;
#141 = COORDINATED_UNIVERSAL_TIME_OFFSET ( 1, 0, .AHEAD. ) ;
#142 = CC_DESIGN_DATE_AND_TIME_ASSIGNMENT ( #43, #41, ( #34 ) ) ;
#143 = CC_DESIGN_APPROVAL ( #115, ( #111 ) ) ;
#144 = APPROVAL_DATE_TIME ( #158, #24 ) ;
#145 = EDGE_LOOP ( 'NONE', ( #58 ) ) ;
#146 = DIRECTION ( 'NONE',  ( -3.491481338843133355E-15, 1.224646799147353059E-15, -1.000000000000000000 ) ) ;
#147 =( LENGTH_UNIT ( ) NAMED_UNIT ( * ) SI_UNIT ( .MILLI., .METRE. ) );
#148 = VERTEX_POINT ( 'NONE', #3 ) ;
#149 = AXIS2_PLACEMENT_3D ( 'NONE', #19, #134, #35 ) ;
#150 = CARTESIAN_POINT ( 'NONE',  ( -1.068957861474239634E-29, 3.749399456654643801E-30, -3.061616997868383043E-15 ) ) ;
#151 = APPROVAL ( #152, 'UNSPECIFIED' ) ;
#152 = APPROVAL_STATUS ( 'not_yet_approved' ) ;
#153 = UNCERTAINTY_MEASURE_WITH_UNIT (LENGTH_MEASURE( 1.000000000000000082E-05 ), #147, 'distance_accuracy_value', 'NONE');
#154 = PERSON_AND_ORGANIZATION ( #103, #118 ) ;
#155 = LOCAL_TIME ( 13, 59, 28.00000000000000000, #77 ) ;
#156 = APPLICATION_CONTEXT ( 'configuration controlled 3d designs of mechanical parts and assemblies' ) ;
#157 = APPROVAL_PERSON_ORGANIZATION ( #101, #115, #108 ) ;
#158 = DATE_AND_TIME ( #55, #155 ) ;
#159 = ORIENTED_EDGE ( 'NONE', *, *, #98, .T. ) ;
#160 = ORIENTED_EDGE ( 'NONE', *, *, #76, .F. ) ;
#161 = FACE_OUTER_BOUND ( 'NONE', #66, .T. ) ;
#162 = ORIENTED_EDGE ( 'NONE', *, *, #125, .F. ) ;
#163 = CARTESIAN_POINT ( 'NONE',  ( 5.473822126268816683E-45, 7.500000000000000000, 0.0000000000000000000 ) ) ;
#164 = PERSON_AND_ORGANIZATION_ROLE ( 'design_owner' ) ;
#165 = DATE_TIME_ROLE ( 'creation_date' ) ;
#166 = ADVANCED_FACE ( 'NONE', ( #70, #133 ), #14, .T. ) ;
#167 = APPLICATION_CONTEXT ( 'configuration controlled 3d designs of mechanical parts and assemblies' ) ;
#168 = EDGE_LOOP ( 'NONE', ( #20 ) ) ;
#169 = APPROVAL_PERSON_ORGANIZATION ( #124, #151, #8 ) ;
ENDSEC;
END-ISO-10303-21;
