ISO-10303-21;
HEADER;
FILE_DESCRIPTION (( 'STEP AP203' ),
    '1' );
FILE_NAME ('37035.step',
    '2021-10-07T13:47:26',
    ( '' ),
    ( '' ),
    'SwSTEP 2.0',
    'SolidWorks 2019',
    '' );
FILE_SCHEMA (( 'CONFIG_CONTROL_DESIGN' ));
ENDSEC;

DATA;
#1 = DIRECTION ( 'NONE',  ( -4.275831445896958607E-31, -1.000000000000000000, -1.224646799147353207E-16 ) ) ;
#2 = DATE_AND_TIME ( #50, #137 ) ;
#3 = AXIS2_PLACEMENT_3D ( 'NONE', #202, #167, #96 ) ;
#4 = CARTESIAN_POINT ( 'NONE',  ( 1.047444401652940007E-13, 0.5499999999999964917, 30.00000000000000000 ) ) ;
#5 = DATE_TIME_ROLE ( 'classification_date' ) ;
#6 = EDGE_LOOP ( 'NONE', ( #41 ) ) ;
#7 = SHAPE_DEFINITION_REPRESENTATION ( #42, #105 ) ;
#8 = AXIS2_PLACEMENT_3D ( 'NONE', #130, #203, #198 ) ;
#9 = EDGE_LOOP ( 'NONE', ( #39 ) ) ;
#10 = UNCERTAINTY_MEASURE_WITH_UNIT (LENGTH_MEASURE( 1.000000000000000082E-05 ), #153, 'distance_accuracy_value', 'NONE');
#11 = FACE_OUTER_BOUND ( 'NONE', #192, .T. ) ;
#12 = DIRECTION ( 'NONE',  ( -3.491481338843133355E-15, 1.224646799147353207E-16, -1.000000000000000000 ) ) ;
#13 = CARTESIAN_POINT ( 'NONE',  ( 1.562930760742447089E-15, 0.7449999999999935563, 0.4476411611755335973 ) ) ;
#14 = DIRECTION ( 'NONE',  ( 3.491481338843133355E-15, -1.224646799147353207E-16, 1.000000000000000000 ) ) ;
#15 = FACE_OUTER_BOUND ( 'NONE', #6, .T. ) ;
#16 = FACE_OUTER_BOUND ( 'NONE', #179, .T. ) ;
#17 =( NAMED_UNIT ( * ) SI_UNIT ( $, .STERADIAN. ) SOLID_ANGLE_UNIT ( ) );
#18 = DATE_AND_TIME ( #190, #150 ) ;
#19 = CC_DESIGN_PERSON_AND_ORGANIZATION_ASSIGNMENT ( #171, #122, ( #206 ) ) ;
#20 = COORDINATED_UNIVERSAL_TIME_OFFSET ( 1, 0, .AHEAD. ) ;
#21 = ORIENTED_EDGE ( 'NONE', *, *, #191, .F. ) ;
#22 = EDGE_LOOP ( 'NONE', ( #92 ) ) ;
#23 = APPROVAL_PERSON_ORGANIZATION ( #51, #142, #103 ) ;
#24 = ADVANCED_FACE ( 'NONE', ( #11 ), #136, .T. ) ;
#25 = ORIENTED_EDGE ( 'NONE', *, *, #57, .F. ) ;
#26 = CARTESIAN_POINT ( 'NONE',  ( 3.910459099504309358E-14, -1.371604415045035513E-15, 11.19999999999999929 ) ) ;
#27 = CONICAL_SURFACE ( 'NONE', #222, 0.5500000000000001554, 0.7853981633974510546 ) ;
#28 = CARTESIAN_POINT ( 'NONE',  ( 1.047444401652940007E-13, -3.673940397442059178E-15, 30.00000000000000000 ) ) ;
#29 = CARTESIAN_POINT ( 'NONE',  ( 1.047444401652940007E-13, -3.673940397442059178E-15, 30.00000000000000000 ) ) ;
#30 = AXIS2_PLACEMENT_3D ( 'NONE', #68, #66, #139 ) ;
#31 = APPROVAL_ROLE ( '' ) ;
#32 = VERTEX_POINT ( 'NONE', #4 ) ;
#33 = AXIS2_PLACEMENT_3D ( 'NONE', #44, #76, #132 ) ;
#34 = COORDINATED_UNIVERSAL_TIME_OFFSET ( 1, 0, .AHEAD. ) ;
#35 = ADVANCED_FACE ( 'NONE', ( #143 ), #214, .T. ) ;
#36 = PERSON_AND_ORGANIZATION ( #45, #102 ) ;
#37 = ORIENTED_EDGE ( 'NONE', *, *, #191, .T. ) ;
#38 = CALENDAR_DATE ( 2021, 7, 10 ) ;
#39 = ORIENTED_EDGE ( 'NONE', *, *, #107, .F. ) ;
#40 = DATE_AND_TIME ( #38, #199 ) ;
#41 = ORIENTED_EDGE ( 'NONE', *, *, #107, .T. ) ;
#42 = PRODUCT_DEFINITION_SHAPE ( 'NONE', 'NONE',  #206 ) ;
#43 = CARTESIAN_POINT ( 'NONE',  ( 3.910459099504309358E-14, 0.7449999999999931122, 11.19999999999999929 ) ) ;
#44 = CARTESIAN_POINT ( 'NONE',  ( 0.0000000000000000000, 0.0000000000000000000, 0.0000000000000000000 ) ) ;
#45 = PERSON ( 'UNSPECIFIED', 'UNSPECIFIED', 'UNSPECIFIED', ('UNSPECIFIED'), ('UNSPECIFIED'), ('UNSPECIFIED') ) ;
#46 = DIRECTION ( 'NONE',  ( -3.491481338843133355E-15, 1.224646799147353207E-16, -1.000000000000000000 ) ) ;
#47 = CARTESIAN_POINT ( 'NONE',  ( 1.040461438975253740E-13, -3.649447461459112464E-15, 29.80000000000000071 ) ) ;
#48 = DIRECTION ( 'NONE',  ( 3.491481338843133355E-15, -1.224646799147353207E-16, 1.000000000000000000 ) ) ;
#49 = AXIS2_PLACEMENT_3D ( 'NONE', #213, #56, #126 ) ;
#50 = CALENDAR_DATE ( 2021, 7, 10 ) ;
#51 = PERSON_AND_ORGANIZATION ( #45, #102 ) ;
#52 = APPROVAL_STATUS ( 'not_yet_approved' ) ;
#53 = AXIS2_PLACEMENT_3D ( 'NONE', #29, #97, #93 ) ;
#54 = APPROVAL_DATE_TIME ( #188, #148 ) ;
#55 = CIRCLE ( 'NONE', #125, 0.7449999999999944444 ) ;
#56 = DIRECTION ( 'NONE',  ( 3.491481338843133355E-15, -1.224646799147353207E-16, 1.000000000000000000 ) ) ;
#57 = EDGE_CURVE ( 'NONE', #94, #94, #113, .T. ) ;
#58 = AXIS2_PLACEMENT_3D ( 'NONE', #115, #78, #180 ) ;
#59 = CARTESIAN_POINT ( 'NONE',  ( 3.910459099504309358E-14, 5.586605190415357051E-33, 11.19999999999999929 ) ) ;
#60 = VERTEX_POINT ( 'NONE', #220 ) ;
#61 = ADVANCED_FACE ( 'NONE', ( #163 ), #182, .F. ) ;
#62 = CYLINDRICAL_SURFACE ( 'NONE', #33, 0.7499999999999988898 ) ;
#63 =( GEOMETRIC_REPRESENTATION_CONTEXT ( 3 ) GLOBAL_UNCERTAINTY_ASSIGNED_CONTEXT ( ( #10 ) ) GLOBAL_UNIT_ASSIGNED_CONTEXT ( ( #153, #140, #17 ) ) REPRESENTATION_CONTEXT ( 'NONE', 'WORKASPACE' ) );
#64 = FACE_OUTER_BOUND ( 'NONE', #124, .T. ) ;
#65 = CARTESIAN_POINT ( 'NONE',  ( 3.910459099504309358E-14, 5.586605190415357051E-33, 11.19999999999999929 ) ) ;
#66 = DIRECTION ( 'NONE',  ( 0.0000000000000000000, 0.0000000000000000000, 1.000000000000000000 ) ) ;
#67 = ADVANCED_FACE ( 'NONE', ( #16 ), #218, .F. ) ;
#68 = CARTESIAN_POINT ( 'NONE',  ( 0.0000000000000000000, 0.0000000000000000000, 0.0000000000000000000 ) ) ;
#69 = PERSON_AND_ORGANIZATION ( #45, #102 ) ;
#70 = ORIENTED_EDGE ( 'NONE', *, *, #118, .T. ) ;
#71 = ORIENTED_EDGE ( 'NONE', *, *, #170, .T. ) ;
#72 = EDGE_LOOP ( 'NONE', ( #177 ) ) ;
#73 = CARTESIAN_POINT ( 'NONE',  ( 3.913482811040588124E-14, 0.7499999999999963363, 11.20866025403784860 ) ) ;
#74 = LOCAL_TIME ( 15, 47, 26.00000000000000000, #172 ) ;
#75 = ADVANCED_FACE ( 'NONE', ( #64, #111 ), #62, .T. ) ;
#76 = DIRECTION ( 'NONE',  ( -3.491481338843133355E-15, 1.224646799147353207E-16, -1.000000000000000000 ) ) ;
#77 = FACE_OUTER_BOUND ( 'NONE', #194, .T. ) ;
#78 = DIRECTION ( 'NONE',  ( -3.491481338843133355E-15, 1.224646799147353207E-16, -1.000000000000000000 ) ) ;
#79 = AXIS2_PLACEMENT_3D ( 'NONE', #183, #48, #200 ) ;
#80 = FACE_BOUND ( 'NONE', #195, .T. ) ;
#81 = MANIFOLD_SOLID_BREP ( 'Corps-Déplacer/Copier1[2]', #98 ) ;
#82 = DATE_TIME_ROLE ( 'creation_date' ) ;
#83 = CONICAL_SURFACE ( 'NONE', #79, 0.7499999999999977796, 0.5235987755983679826 ) ;
#84 = CALENDAR_DATE ( 2021, 7, 10 ) ;
#85 = MANIFOLD_SOLID_BREP ( 'Corps-Déplacer/Copier1[1]', #169 ) ;
#86 = CALENDAR_DATE ( 2021, 7, 10 ) ;
#87 = AXIS2_PLACEMENT_3D ( 'NONE', #59, #14, #95 ) ;
#88 = EDGE_LOOP ( 'NONE', ( #37 ) ) ;
#89 = CC_DESIGN_PERSON_AND_ORGANIZATION_ASSIGNMENT ( #36, #155, ( #189 ) ) ;
#90 = CIRCLE ( 'NONE', #53, 0.5500000000000001554 ) ;
#91 = APPROVAL_DATE_TIME ( #40, #156 ) ;
#92 = ORIENTED_EDGE ( 'NONE', *, *, #57, .T. ) ;
#93 = DIRECTION ( 'NONE',  ( 0.0000000000000000000, 1.000000000000000000, 0.0000000000000000000 ) ) ;
#94 = VERTEX_POINT ( 'NONE', #73 ) ;
#95 = DIRECTION ( 'NONE',  ( -4.275831445896958607E-31, -1.000000000000000000, -1.224646799147353207E-16 ) ) ;
#96 = DIRECTION ( 'NONE',  ( 0.0000000000000000000, 1.000000000000000000, 0.0000000000000000000 ) ) ;
#97 = DIRECTION ( 'NONE',  ( -3.491481338843133355E-15, 1.224646799147353207E-16, -1.000000000000000000 ) ) ;
#98 = CLOSED_SHELL ( 'NONE', ( #24, #193, #35 ) ) ;
#99 = COORDINATED_UNIVERSAL_TIME_OFFSET ( 1, 0, .AHEAD. ) ;
#100 = APPLICATION_PROTOCOL_DEFINITION ( 'international standard', 'config_control_design', 1994, #219 ) ;
#101 = PRODUCT_RELATED_PRODUCT_CATEGORY ( 'detail', '', ( #215 ) ) ;
#102 = ORGANIZATION ( 'UNSPECIFIED', 'UNSPECIFIED', '' ) ;
#103 = APPROVAL_ROLE ( '' ) ;
#104 = PERSON_AND_ORGANIZATION ( #45, #102 ) ;
#105 = ADVANCED_BREP_SHAPE_REPRESENTATION ( '37035', ( #85, #81, #30 ), #63 ) ;
#106 = ORIENTED_EDGE ( 'NONE', *, *, #134, .T. ) ;
#107 = EDGE_CURVE ( 'NONE', #145, #145, #131, .T. ) ;
#108 = CC_DESIGN_APPROVAL ( #156, ( #216 ) ) ;
#109 = ORIENTED_EDGE ( 'NONE', *, *, #134, .F. ) ;
#110 = APPLICATION_CONTEXT ( 'configuration controlled 3d designs of mechanical parts and assemblies' ) ;
#111 = FACE_OUTER_BOUND ( 'NONE', #144, .T. ) ;
#112 = CARTESIAN_POINT ( 'NONE',  ( 1.040461438975253740E-13, 0.7499999999999963363, 29.80000000000000071 ) ) ;
#113 = CIRCLE ( 'NONE', #175, 0.7499999999999977796 ) ;
#114 = CARTESIAN_POINT ( 'NONE',  ( 3.913482811040588124E-14, -1.372664990283760952E-15, 11.20866025403784860 ) ) ;
#115 = CARTESIAN_POINT ( 'NONE',  ( 1.562930760742446695E-15, -5.482023152002216156E-17, 0.4476411611755334863 ) ) ;
#116 = CARTESIAN_POINT ( 'NONE',  ( 0.0000000000000000000, 0.0000000000000000000, 0.0000000000000000000 ) ) ;
#117 = APPROVAL_DATE_TIME ( #2, #142 ) ;
#118 = EDGE_CURVE ( 'NONE', #165, #165, #176, .T. ) ;
#119 = APPROVAL_ROLE ( '' ) ;
#120 = AXIS2_PLACEMENT_3D ( 'NONE', #116, #168, #149 ) ;
#121 = ADVANCED_FACE ( 'NONE', ( #80, #196 ), #83, .T. ) ;
#122 = PERSON_AND_ORGANIZATION_ROLE ( 'creator' ) ;
#123 = MECHANICAL_CONTEXT ( 'NONE', #219, 'mechanical' ) ;
#124 = EDGE_LOOP ( 'NONE', ( #25 ) ) ;
#125 = AXIS2_PLACEMENT_3D ( 'NONE', #26, #46, #223 ) ;
#126 = DIRECTION ( 'NONE',  ( -5.170281729898663430E-31, -1.000000000000000000, -1.455304929510756505E-16 ) ) ;
#127 = DESIGN_CONTEXT ( 'detailed design', #110, 'design' ) ;
#128 = CYLINDRICAL_SURFACE ( 'NONE', #120, 0.7449999999999941114 ) ;
#129 = VERTEX_POINT ( 'NONE', #112 ) ;
#130 = CARTESIAN_POINT ( 'NONE',  ( 1.047444401652940007E-13, 4.124339402320053683E-33, 30.00000000000000000 ) ) ;
#131 = CIRCLE ( 'NONE', #3, 0.7449999999999944444 ) ;
#132 = DIRECTION ( 'NONE',  ( 4.275831445896959482E-31, 1.000000000000000000, 1.224646799147353207E-16 ) ) ;
#133 = DIRECTION ( 'NONE',  ( -3.491481338843133355E-15, 1.224646799147353207E-16, -1.000000000000000000 ) ) ;
#134 = EDGE_CURVE ( 'NONE', #60, #60, #55, .T. ) ;
#135 = PERSON_AND_ORGANIZATION_ROLE ( 'design_owner' ) ;
#136 = CONICAL_SURFACE ( 'NONE', #49, 0.7449999999999936673, 1.029744258676649649 ) ;
#137 = LOCAL_TIME ( 15, 47, 26.00000000000000000, #34 ) ;
#138 = PERSON_AND_ORGANIZATION ( #45, #102 ) ;
#139 = DIRECTION ( 'NONE',  ( 1.000000000000000000, 0.0000000000000000000, 0.0000000000000000000 ) ) ;
#140 =( NAMED_UNIT ( * ) PLANE_ANGLE_UNIT ( ) SI_UNIT ( $, .RADIAN. ) );
#141 = PERSON_AND_ORGANIZATION ( #45, #102 ) ;
#142 = APPROVAL ( #52, 'UNSPECIFIED' ) ;
#143 = FACE_OUTER_BOUND ( 'NONE', #9, .T. ) ;
#144 = EDGE_LOOP ( 'NONE', ( #71 ) ) ;
#145 = VERTEX_POINT ( 'NONE', #43 ) ;
#146 = DIRECTION ( 'NONE',  ( 0.0000000000000000000, 1.000000000000000000, 0.0000000000000000000 ) ) ;
#147 = DIRECTION ( 'NONE',  ( 0.0000000000000000000, 1.000000000000000000, 0.0000000000000000000 ) ) ;
#148 = APPROVAL ( #205, 'UNSPECIFIED' ) ;
#149 = DIRECTION ( 'NONE',  ( 4.275831445896958607E-31, 1.000000000000000000, 1.224646799147353207E-16 ) ) ;
#150 = LOCAL_TIME ( 15, 47, 26.00000000000000000, #207 ) ;
#151 = DIRECTION ( 'NONE',  ( -3.491481338843133355E-15, 1.224646799147353207E-16, -1.000000000000000000 ) ) ;
#152 = CC_DESIGN_PERSON_AND_ORGANIZATION_ASSIGNMENT ( #69, #135, ( #215 ) ) ;
#153 =( LENGTH_UNIT ( ) NAMED_UNIT ( * ) SI_UNIT ( .MILLI., .METRE. ) );
#154 = PERSON_AND_ORGANIZATION_ROLE ( 'classification_officer' ) ;
#155 = PERSON_AND_ORGANIZATION_ROLE ( 'design_supplier' ) ;
#156 = APPROVAL ( #211, 'UNSPECIFIED' ) ;
#157 = DATE_AND_TIME ( #86, #209 ) ;
#158 = CIRCLE ( 'NONE', #181, 0.7500000000000000000 ) ;
#159 = APPROVAL_PERSON_ORGANIZATION ( #138, #148, #119 ) ;
#160 = ORIENTED_EDGE ( 'NONE', *, *, #170, .F. ) ;
#161 = CC_DESIGN_DATE_AND_TIME_ASSIGNMENT ( #157, #5, ( #216 ) ) ;
#162 = EDGE_LOOP ( 'NONE', ( #106 ) ) ;
#163 = FACE_OUTER_BOUND ( 'NONE', #162, .T. ) ;
#164 = CC_DESIGN_SECURITY_CLASSIFICATION ( #216, ( #189 ) ) ;
#165 = VERTEX_POINT ( 'NONE', #13 ) ;
#166 = FACE_OUTER_BOUND ( 'NONE', #72, .T. ) ;
#167 = DIRECTION ( 'NONE',  ( -3.491481338843133355E-15, 1.224646799147353207E-16, -1.000000000000000000 ) ) ;
#168 = DIRECTION ( 'NONE',  ( -3.491481338843133355E-15, 1.224646799147353207E-16, -1.000000000000000000 ) ) ;
#169 = CLOSED_SHELL ( 'NONE', ( #61, #121, #75, #210, #67 ) ) ;
#170 = EDGE_CURVE ( 'NONE', #129, #129, #158, .T. ) ;
#171 = PERSON_AND_ORGANIZATION ( #45, #102 ) ;
#172 = COORDINATED_UNIVERSAL_TIME_OFFSET ( 1, 0, .AHEAD. ) ;
#173 = SECURITY_CLASSIFICATION_LEVEL ( 'unclassified' ) ;
#174 = PERSON_AND_ORGANIZATION ( #45, #102 ) ;
#175 = AXIS2_PLACEMENT_3D ( 'NONE', #114, #133, #147 ) ;
#176 = CIRCLE ( 'NONE', #58, 0.7449999999999936673 ) ;
#177 = ORIENTED_EDGE ( 'NONE', *, *, #118, .F. ) ;
#178 = CC_DESIGN_APPROVAL ( #148, ( #189 ) ) ;
#179 = EDGE_LOOP ( 'NONE', ( #21 ) ) ;
#180 = DIRECTION ( 'NONE',  ( 5.170281729898663430E-31, 1.000000000000000000, 1.455304929510756505E-16 ) ) ;
#181 = AXIS2_PLACEMENT_3D ( 'NONE', #47, #151, #184 ) ;
#182 = PLANE ( 'NONE',  #204 ) ;
#183 = CARTESIAN_POINT ( 'NONE',  ( 3.913482811040588124E-14, -1.372664990283760952E-15, 11.20866025403784860 ) ) ;
#184 = DIRECTION ( 'NONE',  ( 0.0000000000000000000, 1.000000000000000000, 0.0000000000000000000 ) ) ;
#185 = FACE_BOUND ( 'NONE', #88, .T. ) ;
#186 = CC_DESIGN_APPROVAL ( #142, ( #206 ) ) ;
#187 = PERSON_AND_ORGANIZATION_ROLE ( 'creator' ) ;
#188 = DATE_AND_TIME ( #84, #74 ) ;
#189 = PRODUCT_DEFINITION_FORMATION_WITH_SPECIFIED_SOURCE ( 'ANY', '', #215, .NOT_KNOWN. ) ;
#190 = CALENDAR_DATE ( 2021, 7, 10 ) ;
#191 = EDGE_CURVE ( 'NONE', #32, #32, #90, .T. ) ;
#192 = EDGE_LOOP ( 'NONE', ( #70 ) ) ;
#193 = ADVANCED_FACE ( 'NONE', ( #166, #15 ), #128, .T. ) ;
#194 = EDGE_LOOP ( 'NONE', ( #160 ) ) ;
#195 = EDGE_LOOP ( 'NONE', ( #109 ) ) ;
#196 = FACE_OUTER_BOUND ( 'NONE', #22, .T. ) ;
#197 = CC_DESIGN_PERSON_AND_ORGANIZATION_ASSIGNMENT ( #174, #187, ( #189 ) ) ;
#198 = DIRECTION ( 'NONE',  ( 4.275831445896958607E-31, 1.000000000000000000, 1.224646799147353207E-16 ) ) ;
#199 = LOCAL_TIME ( 15, 47, 26.00000000000000000, #99 ) ;
#200 = DIRECTION ( 'NONE',  ( 0.0000000000000000000, -1.000000000000000000, 0.0000000000000000000 ) ) ;
#201 = CC_DESIGN_DATE_AND_TIME_ASSIGNMENT ( #18, #82, ( #206 ) ) ;
#202 = CARTESIAN_POINT ( 'NONE',  ( 3.910459099504309358E-14, -1.371604415045035513E-15, 11.19999999999999929 ) ) ;
#203 = DIRECTION ( 'NONE',  ( -3.491481338843133355E-15, 1.224646799147353207E-16, -1.000000000000000000 ) ) ;
#204 = AXIS2_PLACEMENT_3D ( 'NONE', #65, #221, #1 ) ;
#205 = APPROVAL_STATUS ( 'not_yet_approved' ) ;
#206 = PRODUCT_DEFINITION ( 'UNKNOWN', '', #189, #127 ) ;
#207 = COORDINATED_UNIVERSAL_TIME_OFFSET ( 1, 0, .AHEAD. ) ;
#208 = APPLICATION_PROTOCOL_DEFINITION ( 'international standard', 'config_control_design', 1994, #110 ) ;
#209 = LOCAL_TIME ( 15, 47, 26.00000000000000000, #20 ) ;
#210 = ADVANCED_FACE ( 'NONE', ( #77, #185 ), #27, .T. ) ;
#211 = APPROVAL_STATUS ( 'not_yet_approved' ) ;
#212 = APPROVAL_PERSON_ORGANIZATION ( #141, #156, #31 ) ;
#213 = CARTESIAN_POINT ( 'NONE',  ( 1.562930760742446695E-15, -5.482023152002216156E-17, 0.4476411611755334863 ) ) ;
#214 = PLANE ( 'NONE',  #87 ) ;
#215 = PRODUCT ( '37035', '37035', '', ( #123 ) ) ;
#216 = SECURITY_CLASSIFICATION ( '', '', #173 ) ;
#217 = CC_DESIGN_PERSON_AND_ORGANIZATION_ASSIGNMENT ( #104, #154, ( #216 ) ) ;
#218 = PLANE ( 'NONE',  #8 ) ;
#219 = APPLICATION_CONTEXT ( 'configuration controlled 3d designs of mechanical parts and assemblies' ) ;
#220 = CARTESIAN_POINT ( 'NONE',  ( 3.910459099504309358E-14, 0.7449999999999931122, 11.19999999999999929 ) ) ;
#221 = DIRECTION ( 'NONE',  ( 3.491481338843133355E-15, -1.224646799147353207E-16, 1.000000000000000000 ) ) ;
#222 = AXIS2_PLACEMENT_3D ( 'NONE', #28, #12, #146 ) ;
#223 = DIRECTION ( 'NONE',  ( 0.0000000000000000000, 1.000000000000000000, 0.0000000000000000000 ) ) ;
ENDSEC;
END-ISO-10303-21;
