ISO-10303-21;
HEADER;
FILE_DESCRIPTION (( 'STEP AP203' ),
    '1' );
FILE_NAME ('37034.step',
    '2021-10-07T13:47:26',
    ( '' ),
    ( '' ),
    'SwSTEP 2.0',
    'SolidWorks 2019',
    '' );
FILE_SCHEMA (( 'CONFIG_CONTROL_DESIGN' ));
ENDSEC;

DATA;
#1 = ORIENTED_EDGE ( 'NONE', *, *, #172, .T. ) ;
#2 = CYLINDRICAL_SURFACE ( 'NONE', #137, 0.7399999999999941069 ) ;
#3 = AXIS2_PLACEMENT_3D ( 'NONE', #194, #103, #131 ) ;
#4 = PRODUCT_DEFINITION ( 'UNKNOWN', '', #19, #54 ) ;
#5 = CARTESIAN_POINT ( 'NONE',  ( 3.910459099504309358E-14, -1.371604415045035513E-15, 11.19999999999999929 ) ) ;
#6 = VERTEX_POINT ( 'NONE', #213 ) ;
#7 = FACE_BOUND ( 'NONE', #142, .T. ) ;
#8 = APPROVAL ( #88, 'UNSPECIFIED' ) ;
#9 = DIRECTION ( 'NONE',  ( 4.275831445896959482E-31, 1.000000000000000000, 1.224646799147353207E-16 ) ) ;
#10 = PERSON_AND_ORGANIZATION_ROLE ( 'creator' ) ;
#11 = APPROVAL_STATUS ( 'not_yet_approved' ) ;
#12 = MANIFOLD_SOLID_BREP ( 'Corps-Déplacer/Copier1[2]', #72 ) ;
#13 = ADVANCED_FACE ( 'NONE', ( #189 ), #223, .F. ) ;
#14 = CALENDAR_DATE ( 2021, 7, 10 ) ;
#15 = AXIS2_PLACEMENT_3D ( 'NONE', #65, #116, #132 ) ;
#16 = APPROVAL_STATUS ( 'not_yet_approved' ) ;
#17 = ADVANCED_FACE ( 'NONE', ( #173, #24 ), #44, .T. ) ;
#18 = SHAPE_DEFINITION_REPRESENTATION ( #182, #210 ) ;
#19 = PRODUCT_DEFINITION_FORMATION_WITH_SPECIFIED_SOURCE ( 'ANY', '', #219, .NOT_KNOWN. ) ;
#20 = ORIENTED_EDGE ( 'NONE', *, *, #130, .T. ) ;
#21 = ORIENTED_EDGE ( 'NONE', *, *, #199, .F. ) ;
#22 = MANIFOLD_SOLID_BREP ( 'Corps-Déplacer/Copier1[1]', #83 ) ;
#23 = EDGE_LOOP ( 'NONE', ( #58 ) ) ;
#24 = FACE_OUTER_BOUND ( 'NONE', #140, .T. ) ;
#25 = DIRECTION ( 'NONE',  ( -5.205216065911492492E-31, -1.000000000000000000, -1.465138070926369796E-16 ) ) ;
#26 = DIRECTION ( 'NONE',  ( -3.491481338843133355E-15, 1.224646799147353207E-16, -1.000000000000000000 ) ) ;
#27 = APPROVAL ( #11, 'UNSPECIFIED' ) ;
#28 = VERTEX_POINT ( 'NONE', #162 ) ;
#29 = FACE_OUTER_BOUND ( 'NONE', #108, .T. ) ;
#30 = CIRCLE ( 'NONE', #64, 0.7399999999999946620 ) ;
#31 = CARTESIAN_POINT ( 'NONE',  ( 3.916506522576866260E-14, -1.373725565522485996E-15, 11.21732050807569436 ) ) ;
#32 = DATE_TIME_ROLE ( 'creation_date' ) ;
#33 = DIRECTION ( 'NONE',  ( 1.000000000000000000, 0.0000000000000000000, 0.0000000000000000000 ) ) ;
#34 = MECHANICAL_CONTEXT ( 'NONE', #198, 'mechanical' ) ;
#35 = AXIS2_PLACEMENT_3D ( 'NONE', #66, #26, #9 ) ;
#36 = APPROVAL_DATE_TIME ( #196, #122 ) ;
#37 = AXIS2_PLACEMENT_3D ( 'NONE', #99, #97, #62 ) ;
#38 = CC_DESIGN_DATE_AND_TIME_ASSIGNMENT ( #87, #152, ( #60 ) ) ;
#39 = DIRECTION ( 'NONE',  ( 3.491481338843133355E-15, -1.224646799147353207E-16, 1.000000000000000000 ) ) ;
#40 = ORIENTED_EDGE ( 'NONE', *, *, #141, .T. ) ;
#41 = CARTESIAN_POINT ( 'NONE',  ( 1.552441292549544017E-15, -5.445231050310924266E-17, 0.4446368580803956028 ) ) ;
#42 = FACE_OUTER_BOUND ( 'NONE', #73, .T. ) ;
#43 = LOCAL_TIME ( 15, 47, 26.00000000000000000, #217 ) ;
#44 = CYLINDRICAL_SURFACE ( 'NONE', #35, 0.7499999999999988898 ) ;
#45 = CC_DESIGN_PERSON_AND_ORGANIZATION_ASSIGNMENT ( #121, #168, ( #219 ) ) ;
#46 = DIRECTION ( 'NONE',  ( 4.275831445896958607E-31, 1.000000000000000000, 1.224646799147353207E-16 ) ) ;
#47 = DIRECTION ( 'NONE',  ( 4.275831445896958607E-31, 1.000000000000000000, 1.224646799147353207E-16 ) ) ;
#48 = AXIS2_PLACEMENT_3D ( 'NONE', #61, #118, #25 ) ;
#49 = VERTEX_POINT ( 'NONE', #85 ) ;
#50 = ADVANCED_FACE ( 'NONE', ( #129, #100 ), #69, .T. ) ;
#51 = UNCERTAINTY_MEASURE_WITH_UNIT (LENGTH_MEASURE( 1.000000000000000082E-05 ), #123, 'distance_accuracy_value', 'NONE');
#52 = APPROVAL_ROLE ( '' ) ;
#53 = EDGE_CURVE ( 'NONE', #6, #6, #107, .T. ) ;
#54 = DESIGN_CONTEXT ( 'detailed design', #190, 'design' ) ;
#55 = PERSON_AND_ORGANIZATION_ROLE ( 'classification_officer' ) ;
#56 = EDGE_LOOP ( 'NONE', ( #96 ) ) ;
#57 = LOCAL_TIME ( 15, 47, 26.00000000000000000, #150 ) ;
#58 = ORIENTED_EDGE ( 'NONE', *, *, #156, .F. ) ;
#59 = EDGE_LOOP ( 'NONE', ( #125 ) ) ;
#60 = SECURITY_CLASSIFICATION ( '', '', #167 ) ;
#61 = CARTESIAN_POINT ( 'NONE',  ( 1.552441292549544017E-15, -5.445231050310924266E-17, 0.4446368580803956028 ) ) ;
#62 = DIRECTION ( 'NONE',  ( 0.0000000000000000000, 1.000000000000000000, 0.0000000000000000000 ) ) ;
#63 = DIRECTION ( 'NONE',  ( 0.0000000000000000000, 1.000000000000000000, 0.0000000000000000000 ) ) ;
#64 = AXIS2_PLACEMENT_3D ( 'NONE', #5, #79, #191 ) ;
#65 = CARTESIAN_POINT ( 'NONE',  ( 3.910459099504309358E-14, -1.371604415045035513E-15, 11.19999999999999929 ) ) ;
#66 = CARTESIAN_POINT ( 'NONE',  ( 0.0000000000000000000, 0.0000000000000000000, 0.0000000000000000000 ) ) ;
#67 = ADVANCED_FACE ( 'NONE', ( #192 ), #178, .T. ) ;
#68 =( NAMED_UNIT ( * ) SI_UNIT ( $, .STERADIAN. ) SOLID_ANGLE_UNIT ( ) );
#69 = CONICAL_SURFACE ( 'NONE', #37, 0.5500000000000001554, 0.7853981633974510546 ) ;
#70 = PERSON_AND_ORGANIZATION_ROLE ( 'creator' ) ;
#71 = PRODUCT_RELATED_PRODUCT_CATEGORY ( 'detail', '', ( #219 ) ) ;
#72 = CLOSED_SHELL ( 'NONE', ( #98, #127, #67 ) ) ;
#73 = EDGE_LOOP ( 'NONE', ( #204 ) ) ;
#74 = DATE_AND_TIME ( #157, #43 ) ;
#75 = EDGE_LOOP ( 'NONE', ( #1 ) ) ;
#76 = APPROVAL_PERSON_ORGANIZATION ( #165, #27, #136 ) ;
#77 = CARTESIAN_POINT ( 'NONE',  ( 3.910459099504309358E-14, 5.549111195848812390E-33, 11.19999999999999929 ) ) ;
#78 = DIRECTION ( 'NONE',  ( 5.205216065911492492E-31, 1.000000000000000000, 1.465138070926369796E-16 ) ) ;
#79 = DIRECTION ( 'NONE',  ( -3.491481338843133355E-15, 1.224646799147353207E-16, -1.000000000000000000 ) ) ;
#80 = CC_DESIGN_PERSON_AND_ORGANIZATION_ASSIGNMENT ( #138, #55, ( #60 ) ) ;
#81 = CARTESIAN_POINT ( 'NONE',  ( 1.040461438975253740E-13, 0.7499999999999963363, 29.80000000000000071 ) ) ;
#82 = VERTEX_POINT ( 'NONE', #163 ) ;
#83 = CLOSED_SHELL ( 'NONE', ( #13, #169, #17, #50, #92 ) ) ;
#84 = CARTESIAN_POINT ( 'NONE',  ( 3.916506522576866260E-14, -1.373725565522485996E-15, 11.21732050807569436 ) ) ;
#85 = CARTESIAN_POINT ( 'NONE',  ( 3.916506522576866260E-14, 0.7499999999999963363, 11.21732050807569436 ) ) ;
#86 = CARTESIAN_POINT ( 'NONE',  ( 0.0000000000000000000, 0.0000000000000000000, 0.0000000000000000000 ) ) ;
#87 = DATE_AND_TIME ( #14, #205 ) ;
#88 = APPROVAL_STATUS ( 'not_yet_approved' ) ;
#89 = CC_DESIGN_DATE_AND_TIME_ASSIGNMENT ( #180, #32, ( #4 ) ) ;
#90 = CALENDAR_DATE ( 2021, 7, 10 ) ;
#91 = LOCAL_TIME ( 15, 47, 26.00000000000000000, #153 ) ;
#92 = ADVANCED_FACE ( 'NONE', ( #29 ), #193, .F. ) ;
#93 = APPROVAL_DATE_TIME ( #74, #8 ) ;
#94 = ORIENTED_EDGE ( 'NONE', *, *, #53, .T. ) ;
#95 = AXIS2_PLACEMENT_3D ( 'NONE', #86, #184, #33 ) ;
#96 = ORIENTED_EDGE ( 'NONE', *, *, #130, .F. ) ;
#97 = DIRECTION ( 'NONE',  ( -3.491481338843133355E-15, 1.224646799147353207E-16, -1.000000000000000000 ) ) ;
#98 = ADVANCED_FACE ( 'NONE', ( #144 ), #133, .T. ) ;
#99 = CARTESIAN_POINT ( 'NONE',  ( 1.047444401652940007E-13, -3.673940397442059178E-15, 30.00000000000000000 ) ) ;
#100 = FACE_BOUND ( 'NONE', #170, .T. ) ;
#101 = FACE_OUTER_BOUND ( 'NONE', #59, .T. ) ;
#102 = AXIS2_PLACEMENT_3D ( 'NONE', #41, #117, #78 ) ;
#103 = DIRECTION ( 'NONE',  ( 3.491481338843133355E-15, -1.224646799147353207E-16, 1.000000000000000000 ) ) ;
#104 = PERSON_AND_ORGANIZATION ( #221, #171 ) ;
#105 = CIRCLE ( 'NONE', #187, 0.7500000000000000000 ) ;
#106 = CALENDAR_DATE ( 2021, 7, 10 ) ;
#107 = CIRCLE ( 'NONE', #112, 0.5500000000000001554 ) ;
#108 = EDGE_LOOP ( 'NONE', ( #126 ) ) ;
#109 = CC_DESIGN_PERSON_AND_ORGANIZATION_ASSIGNMENT ( #104, #218, ( #19 ) ) ;
#110 = APPROVAL_PERSON_ORGANIZATION ( #216, #8, #135 ) ;
#111 = DIRECTION ( 'NONE',  ( -4.275831445896958607E-31, -1.000000000000000000, -1.224646799147353207E-16 ) ) ;
#112 = AXIS2_PLACEMENT_3D ( 'NONE', #146, #148, #113 ) ;
#113 = DIRECTION ( 'NONE',  ( 0.0000000000000000000, 1.000000000000000000, 0.0000000000000000000 ) ) ;
#114 = CARTESIAN_POINT ( 'NONE',  ( 0.0000000000000000000, 0.0000000000000000000, 0.0000000000000000000 ) ) ;
#115 = CC_DESIGN_APPROVAL ( #8, ( #60 ) ) ;
#116 = DIRECTION ( 'NONE',  ( -3.491481338843133355E-15, 1.224646799147353207E-16, -1.000000000000000000 ) ) ;
#117 = DIRECTION ( 'NONE',  ( -3.491481338843133355E-15, 1.224646799147353207E-16, -1.000000000000000000 ) ) ;
#118 = DIRECTION ( 'NONE',  ( 3.491481338843133355E-15, -1.224646799147353207E-16, 1.000000000000000000 ) ) ;
#119 = AXIS2_PLACEMENT_3D ( 'NONE', #31, #208, #195 ) ;
#120 = CALENDAR_DATE ( 2021, 7, 10 ) ;
#121 = PERSON_AND_ORGANIZATION ( #221, #171 ) ;
#122 = APPROVAL ( #16, 'UNSPECIFIED' ) ;
#123 =( LENGTH_UNIT ( ) NAMED_UNIT ( * ) SI_UNIT ( .MILLI., .METRE. ) );
#124 = PERSON_AND_ORGANIZATION ( #221, #171 ) ;
#125 = ORIENTED_EDGE ( 'NONE', *, *, #199, .T. ) ;
#126 = ORIENTED_EDGE ( 'NONE', *, *, #53, .F. ) ;
#127 = ADVANCED_FACE ( 'NONE', ( #42, #159 ), #2, .T. ) ;
#128 = DIRECTION ( 'NONE',  ( -3.491481338843133355E-15, 1.224646799147353207E-16, -1.000000000000000000 ) ) ;
#129 = FACE_OUTER_BOUND ( 'NONE', #56, .T. ) ;
#130 = EDGE_CURVE ( 'NONE', #209, #209, #105, .T. ) ;
#131 = DIRECTION ( 'NONE',  ( -4.275831445896958607E-31, -1.000000000000000000, -1.224646799147353207E-16 ) ) ;
#132 = DIRECTION ( 'NONE',  ( 0.0000000000000000000, 1.000000000000000000, 0.0000000000000000000 ) ) ;
#133 = CONICAL_SURFACE ( 'NONE', #48, 0.7399999999999936628, 1.029744258676649871 ) ;
#134 = PERSON_AND_ORGANIZATION ( #221, #171 ) ;
#135 = APPROVAL_ROLE ( '' ) ;
#136 = APPROVAL_ROLE ( '' ) ;
#137 = AXIS2_PLACEMENT_3D ( 'NONE', #114, #207, #46 ) ;
#138 = PERSON_AND_ORGANIZATION ( #221, #171 ) ;
#139 = EDGE_LOOP ( 'NONE', ( #21 ) ) ;
#140 = EDGE_LOOP ( 'NONE', ( #20 ) ) ;
#141 = EDGE_CURVE ( 'NONE', #145, #145, #222, .T. ) ;
#142 = EDGE_LOOP ( 'NONE', ( #186 ) ) ;
#143 = AXIS2_PLACEMENT_3D ( 'NONE', #212, #179, #47 ) ;
#144 = FACE_OUTER_BOUND ( 'NONE', #75, .T. ) ;
#145 = VERTEX_POINT ( 'NONE', #177 ) ;
#146 = CARTESIAN_POINT ( 'NONE',  ( 1.047444401652940007E-13, -3.673940397442059178E-15, 30.00000000000000000 ) ) ;
#147 = APPROVAL_PERSON_ORGANIZATION ( #197, #122, #52 ) ;
#148 = DIRECTION ( 'NONE',  ( -3.491481338843133355E-15, 1.224646799147353207E-16, -1.000000000000000000 ) ) ;
#149 = COORDINATED_UNIVERSAL_TIME_OFFSET ( 1, 0, .AHEAD. ) ;
#150 = COORDINATED_UNIVERSAL_TIME_OFFSET ( 1, 0, .AHEAD. ) ;
#151 = CC_DESIGN_APPROVAL ( #122, ( #4 ) ) ;
#152 = DATE_TIME_ROLE ( 'classification_date' ) ;
#153 = COORDINATED_UNIVERSAL_TIME_OFFSET ( 1, 0, .AHEAD. ) ;
#154 = DATE_AND_TIME ( #106, #57 ) ;
#155 = LOCAL_TIME ( 15, 47, 26.00000000000000000, #149 ) ;
#156 = EDGE_CURVE ( 'NONE', #28, #28, #30, .T. ) ;
#157 = CALENDAR_DATE ( 2021, 7, 10 ) ;
#158 = AXIS2_PLACEMENT_3D ( 'NONE', #77, #39, #111 ) ;
#159 = FACE_OUTER_BOUND ( 'NONE', #220, .T. ) ;
#160 = DIRECTION ( 'NONE',  ( 0.0000000000000000000, 1.000000000000000000, 0.0000000000000000000 ) ) ;
#161 = CC_DESIGN_PERSON_AND_ORGANIZATION_ASSIGNMENT ( #124, #10, ( #4 ) ) ;
#162 = CARTESIAN_POINT ( 'NONE',  ( 3.910459099504309358E-14, 0.7399999999999932188, 11.19999999999999929 ) ) ;
#163 = CARTESIAN_POINT ( 'NONE',  ( 1.552441292549544411E-15, 0.7399999999999935518, 0.4446368580803957138 ) ) ;
#164 = CIRCLE ( 'NONE', #211, 0.7499999999999977796 ) ;
#165 = PERSON_AND_ORGANIZATION ( #221, #171 ) ;
#166 = COORDINATED_UNIVERSAL_TIME_OFFSET ( 1, 0, .AHEAD. ) ;
#167 = SECURITY_CLASSIFICATION_LEVEL ( 'unclassified' ) ;
#168 = PERSON_AND_ORGANIZATION_ROLE ( 'design_owner' ) ;
#169 = ADVANCED_FACE ( 'NONE', ( #7, #101 ), #202, .T. ) ;
#170 = EDGE_LOOP ( 'NONE', ( #94 ) ) ;
#171 = ORGANIZATION ( 'UNSPECIFIED', 'UNSPECIFIED', '' ) ;
#172 = EDGE_CURVE ( 'NONE', #82, #82, #215, .T. ) ;
#173 = FACE_OUTER_BOUND ( 'NONE', #139, .T. ) ;
#174 = DIRECTION ( 'NONE',  ( -3.491481338843133355E-15, 1.224646799147353207E-16, -1.000000000000000000 ) ) ;
#175 = CC_DESIGN_APPROVAL ( #27, ( #19 ) ) ;
#176 = CARTESIAN_POINT ( 'NONE',  ( 1.040461438975253740E-13, -3.649447461459112464E-15, 29.80000000000000071 ) ) ;
#177 = CARTESIAN_POINT ( 'NONE',  ( 3.910459099504309358E-14, 0.7399999999999932188, 11.19999999999999929 ) ) ;
#178 = PLANE ( 'NONE',  #3 ) ;
#179 = DIRECTION ( 'NONE',  ( -3.491481338843133355E-15, 1.224646799147353207E-16, -1.000000000000000000 ) ) ;
#180 = DATE_AND_TIME ( #120, #91 ) ;
#181 = APPLICATION_PROTOCOL_DEFINITION ( 'international standard', 'config_control_design', 1994, #198 ) ;
#182 = PRODUCT_DEFINITION_SHAPE ( 'NONE', 'NONE',  #4 ) ;
#183 =( GEOMETRIC_REPRESENTATION_CONTEXT ( 3 ) GLOBAL_UNCERTAINTY_ASSIGNED_CONTEXT ( ( #51 ) ) GLOBAL_UNIT_ASSIGNED_CONTEXT ( ( #123, #185, #68 ) ) REPRESENTATION_CONTEXT ( 'NONE', 'WORKASPACE' ) );
#184 = DIRECTION ( 'NONE',  ( 0.0000000000000000000, 0.0000000000000000000, 1.000000000000000000 ) ) ;
#185 =( NAMED_UNIT ( * ) PLANE_ANGLE_UNIT ( ) SI_UNIT ( $, .RADIAN. ) );
#186 = ORIENTED_EDGE ( 'NONE', *, *, #141, .F. ) ;
#187 = AXIS2_PLACEMENT_3D ( 'NONE', #176, #128, #63 ) ;
#188 = ORIENTED_EDGE ( 'NONE', *, *, #156, .T. ) ;
#189 = FACE_OUTER_BOUND ( 'NONE', #206, .T. ) ;
#190 = APPLICATION_CONTEXT ( 'configuration controlled 3d designs of mechanical parts and assemblies' ) ;
#191 = DIRECTION ( 'NONE',  ( 0.0000000000000000000, 1.000000000000000000, 0.0000000000000000000 ) ) ;
#192 = FACE_OUTER_BOUND ( 'NONE', #23, .T. ) ;
#193 = PLANE ( 'NONE',  #143 ) ;
#194 = CARTESIAN_POINT ( 'NONE',  ( 3.910459099504309358E-14, 5.549111195848812390E-33, 11.19999999999999929 ) ) ;
#195 = DIRECTION ( 'NONE',  ( 0.0000000000000000000, -1.000000000000000000, 0.0000000000000000000 ) ) ;
#196 = DATE_AND_TIME ( #90, #155 ) ;
#197 = PERSON_AND_ORGANIZATION ( #221, #171 ) ;
#198 = APPLICATION_CONTEXT ( 'configuration controlled 3d designs of mechanical parts and assemblies' ) ;
#199 = EDGE_CURVE ( 'NONE', #49, #49, #164, .T. ) ;
#200 = APPLICATION_PROTOCOL_DEFINITION ( 'international standard', 'config_control_design', 1994, #190 ) ;
#201 = CC_DESIGN_SECURITY_CLASSIFICATION ( #60, ( #19 ) ) ;
#202 = CONICAL_SURFACE ( 'NONE', #119, 0.7499999999999977796, 0.5235987755983044778 ) ;
#203 = CC_DESIGN_PERSON_AND_ORGANIZATION_ASSIGNMENT ( #134, #70, ( #19 ) ) ;
#204 = ORIENTED_EDGE ( 'NONE', *, *, #172, .F. ) ;
#205 = LOCAL_TIME ( 15, 47, 26.00000000000000000, #166 ) ;
#206 = EDGE_LOOP ( 'NONE', ( #40 ) ) ;
#207 = DIRECTION ( 'NONE',  ( -3.491481338843133355E-15, 1.224646799147353207E-16, -1.000000000000000000 ) ) ;
#208 = DIRECTION ( 'NONE',  ( 3.491481338843133355E-15, -1.224646799147353207E-16, 1.000000000000000000 ) ) ;
#209 = VERTEX_POINT ( 'NONE', #81 ) ;
#210 = ADVANCED_BREP_SHAPE_REPRESENTATION ( '37034', ( #22, #12, #95 ), #183 ) ;
#211 = AXIS2_PLACEMENT_3D ( 'NONE', #84, #174, #160 ) ;
#212 = CARTESIAN_POINT ( 'NONE',  ( 1.047444401652940007E-13, 4.124339402320053683E-33, 30.00000000000000000 ) ) ;
#213 = CARTESIAN_POINT ( 'NONE',  ( 1.047444401652940007E-13, 0.5499999999999964917, 30.00000000000000000 ) ) ;
#214 = APPROVAL_DATE_TIME ( #154, #27 ) ;
#215 = CIRCLE ( 'NONE', #102, 0.7399999999999936628 ) ;
#216 = PERSON_AND_ORGANIZATION ( #221, #171 ) ;
#217 = COORDINATED_UNIVERSAL_TIME_OFFSET ( 1, 0, .AHEAD. ) ;
#218 = PERSON_AND_ORGANIZATION_ROLE ( 'design_supplier' ) ;
#219 = PRODUCT ( '37034', '37034', '', ( #34 ) ) ;
#220 = EDGE_LOOP ( 'NONE', ( #188 ) ) ;
#221 = PERSON ( 'UNSPECIFIED', 'UNSPECIFIED', 'UNSPECIFIED', ('UNSPECIFIED'), ('UNSPECIFIED'), ('UNSPECIFIED') ) ;
#222 = CIRCLE ( 'NONE', #15, 0.7399999999999946620 ) ;
#223 = PLANE ( 'NONE',  #158 ) ;
ENDSEC;
END-ISO-10303-21;
