ISO-10303-21;
HEADER;
FILE_DESCRIPTION (( 'STEP AP203' ),
    '1' );
FILE_NAME ('37033.step',
    '2021-10-07T13:47:25',
    ( '' ),
    ( '' ),
    'SwSTEP 2.0',
    'SolidWorks 2019',
    '' );
FILE_SCHEMA (( 'CONFIG_CONTROL_DESIGN' ));
ENDSEC;

DATA;
#1 = ADVANCED_FACE ( 'NONE', ( #76 ), #88, .F. ) ;
#2 = CLOSED_SHELL ( 'NONE', ( #100, #190, #77 ) ) ;
#3 = CARTESIAN_POINT ( 'NONE',  ( 1.047444401652940007E-13, 0.5499999999999964917, 30.00000000000000000 ) ) ;
#4 = DIRECTION ( 'NONE',  ( -3.491481338843133355E-15, 1.224646799147353207E-16, -1.000000000000000000 ) ) ;
#5 = FACE_OUTER_BOUND ( 'NONE', #49, .T. ) ;
#6 = FACE_OUTER_BOUND ( 'NONE', #123, .T. ) ;
#7 = DIRECTION ( 'NONE',  ( 4.275831445896958607E-31, 1.000000000000000000, 1.224646799147353454E-16 ) ) ;
#8 = AXIS2_PLACEMENT_3D ( 'NONE', #188, #159, #7 ) ;
#9 = LOCAL_TIME ( 15, 47, 25.00000000000000000, #46 ) ;
#10 = COORDINATED_UNIVERSAL_TIME_OFFSET ( 1, 0, .AHEAD. ) ;
#11 = EDGE_LOOP ( 'NONE', ( #90 ) ) ;
#12 = EDGE_CURVE ( 'NONE', #206, #206, #64, .T. ) ;
#13 = DESIGN_CONTEXT ( 'detailed design', #153, 'design' ) ;
#14 = DIRECTION ( 'NONE',  ( 1.000000000000000000, 0.0000000000000000000, 0.0000000000000000000 ) ) ;
#15 = AXIS2_PLACEMENT_3D ( 'NONE', #94, #95, #101 ) ;
#16 = EDGE_LOOP ( 'NONE', ( #97 ) ) ;
#17 = DATE_AND_TIME ( #34, #9 ) ;
#18 = EDGE_LOOP ( 'NONE', ( #205 ) ) ;
#19 = DATE_AND_TIME ( #107, #112 ) ;
#20 = PRODUCT_DEFINITION ( 'UNKNOWN', '', #140, #13 ) ;
#21 = PLANE ( 'NONE',  #139 ) ;
#22 = ORIENTED_EDGE ( 'NONE', *, *, #180, .F. ) ;
#23 = CC_DESIGN_APPROVAL ( #164, ( #140 ) ) ;
#24 = FACE_OUTER_BOUND ( 'NONE', #121, .T. ) ;
#25 = CARTESIAN_POINT ( 'NONE',  ( 1.541951824356641734E-15, -5.408438948619634225E-17, 0.4416325549852577748 ) ) ;
#26 = PLANE ( 'NONE',  #72 ) ;
#27 = CARTESIAN_POINT ( 'NONE',  ( 3.919530234113143133E-14, 0.7499999999999963363, 11.22598076211353657 ) ) ;
#28 = FACE_OUTER_BOUND ( 'NONE', #18, .T. ) ;
#29 = ADVANCED_BREP_SHAPE_REPRESENTATION ( '37033', ( #152, #81, #131 ), #31 ) ;
#30 = APPROVAL_DATE_TIME ( #17, #164 ) ;
#31 =( GEOMETRIC_REPRESENTATION_CONTEXT ( 3 ) GLOBAL_UNCERTAINTY_ASSIGNED_CONTEXT ( ( #135 ) ) GLOBAL_UNIT_ASSIGNED_CONTEXT ( ( #132, #39, #146 ) ) REPRESENTATION_CONTEXT ( 'NONE', 'WORKASPACE' ) );
#32 = ORIENTED_EDGE ( 'NONE', *, *, #56, .T. ) ;
#33 = SECURITY_CLASSIFICATION_LEVEL ( 'unclassified' ) ;
#34 = CALENDAR_DATE ( 2021, 7, 10 ) ;
#35 = ORIENTED_EDGE ( 'NONE', *, *, #111, .F. ) ;
#36 = CARTESIAN_POINT ( 'NONE',  ( 3.910459099504308727E-14, -1.371604415045035316E-15, 11.19999999999999751 ) ) ;
#37 = AXIS2_PLACEMENT_3D ( 'NONE', #38, #4, #166 ) ;
#38 = CARTESIAN_POINT ( 'NONE',  ( 1.047444401652940007E-13, -3.673940397442059178E-15, 30.00000000000000000 ) ) ;
#39 =( NAMED_UNIT ( * ) PLANE_ANGLE_UNIT ( ) SI_UNIT ( $, .RADIAN. ) );
#40 = ADVANCED_FACE ( 'NONE', ( #47, #221 ), #87, .T. ) ;
#41 = DIRECTION ( 'NONE',  ( 0.0000000000000000000, -1.000000000000000000, 0.0000000000000000000 ) ) ;
#42 = ORIENTED_EDGE ( 'NONE', *, *, #43, .F. ) ;
#43 = EDGE_CURVE ( 'NONE', #83, #83, #69, .T. ) ;
#44 = CALENDAR_DATE ( 2021, 7, 10 ) ;
#45 = PERSON_AND_ORGANIZATION ( #185, #208 ) ;
#46 = COORDINATED_UNIVERSAL_TIME_OFFSET ( 1, 0, .AHEAD. ) ;
#47 = FACE_BOUND ( 'NONE', #177, .T. ) ;
#48 = PERSON_AND_ORGANIZATION ( #185, #208 ) ;
#49 = EDGE_LOOP ( 'NONE', ( #172 ) ) ;
#50 = EDGE_LOOP ( 'NONE', ( #161 ) ) ;
#51 = APPROVAL ( #92, 'UNSPECIFIED' ) ;
#52 = AXIS2_PLACEMENT_3D ( 'NONE', #167, #145, #142 ) ;
#53 = CC_DESIGN_APPROVAL ( #156, ( #163 ) ) ;
#54 = DIRECTION ( 'NONE',  ( 3.491481338843133355E-15, -1.224646799147353207E-16, 1.000000000000000000 ) ) ;
#55 = CLOSED_SHELL ( 'NONE', ( #1, #40, #85, #144, #128 ) ) ;
#56 = EDGE_CURVE ( 'NONE', #79, #79, #219, .T. ) ;
#57 = CIRCLE ( 'NONE', #217, 0.7349999999999931033 ) ;
#58 = LOCAL_TIME ( 15, 47, 25.00000000000000000, #105 ) ;
#59 = CC_DESIGN_PERSON_AND_ORGANIZATION_ASSIGNMENT ( #174, #136, ( #140 ) ) ;
#60 = CARTESIAN_POINT ( 'NONE',  ( 1.040461438975253740E-13, 0.7499999999999963363, 29.80000000000000071 ) ) ;
#61 = EDGE_LOOP ( 'NONE', ( #74 ) ) ;
#62 = FACE_OUTER_BOUND ( 'NONE', #148, .T. ) ;
#63 = FACE_BOUND ( 'NONE', #16, .T. ) ;
#64 = CIRCLE ( 'NONE', #155, 0.7349999999999931033 ) ;
#65 = VERTEX_POINT ( 'NONE', #3 ) ;
#66 = PERSON_AND_ORGANIZATION ( #185, #208 ) ;
#67 = APPLICATION_PROTOCOL_DEFINITION ( 'international standard', 'config_control_design', 1994, #153 ) ;
#68 = CARTESIAN_POINT ( 'NONE',  ( 0.0000000000000000000, 0.0000000000000000000, 0.0000000000000000000 ) ) ;
#69 = CIRCLE ( 'NONE', #187, 0.7500000000000000000 ) ;
#70 = CARTESIAN_POINT ( 'NONE',  ( 3.919530234113143133E-14, -1.374786140761210843E-15, 11.22598076211353657 ) ) ;
#71 = PERSON_AND_ORGANIZATION_ROLE ( 'classification_officer' ) ;
#72 = AXIS2_PLACEMENT_3D ( 'NONE', #82, #165, #141 ) ;
#73 = LOCAL_TIME ( 15, 47, 25.00000000000000000, #149 ) ;
#74 = ORIENTED_EDGE ( 'NONE', *, *, #12, .T. ) ;
#75 = DIRECTION ( 'NONE',  ( 4.275831445896958607E-31, 1.000000000000000000, 1.224646799147353207E-16 ) ) ;
#76 = FACE_OUTER_BOUND ( 'NONE', #61, .T. ) ;
#77 = ADVANCED_FACE ( 'NONE', ( #220 ), #26, .T. ) ;
#78 = CC_DESIGN_APPROVAL ( #51, ( #20 ) ) ;
#79 = VERTEX_POINT ( 'NONE', #27 ) ;
#80 = VERTEX_POINT ( 'NONE', #216 ) ;
#81 = MANIFOLD_SOLID_BREP ( 'Corps-Déplacer/Copier1[2]', #2 ) ;
#82 = CARTESIAN_POINT ( 'NONE',  ( 3.910459099504308727E-14, 2.179539724273589346E-31, 11.19999999999999751 ) ) ;
#83 = VERTEX_POINT ( 'NONE', #60 ) ;
#84 = PERSON_AND_ORGANIZATION ( #185, #208 ) ;
#85 = ADVANCED_FACE ( 'NONE', ( #62, #5 ), #115, .T. ) ;
#86 = DATE_AND_TIME ( #179, #73 ) ;
#87 = CONICAL_SURFACE ( 'NONE', #162, 0.7499999999999977796, 0.5235987755983333436 ) ;
#88 = PLANE ( 'NONE',  #194 ) ;
#89 = PERSON_AND_ORGANIZATION_ROLE ( 'design_owner' ) ;
#90 = ORIENTED_EDGE ( 'NONE', *, *, #201, .F. ) ;
#91 = CARTESIAN_POINT ( 'NONE',  ( 3.910459099504308727E-14, 2.179539724273589346E-31, 11.19999999999999751 ) ) ;
#92 = APPROVAL_STATUS ( 'not_yet_approved' ) ;
#93 = AXIS2_PLACEMENT_3D ( 'NONE', #184, #215, #204 ) ;
#94 = CARTESIAN_POINT ( 'NONE',  ( 1.541951824356641734E-15, -5.408438948619634225E-17, 0.4416325549852577748 ) ) ;
#95 = DIRECTION ( 'NONE',  ( -3.491481338843133355E-15, 1.224646799147353207E-16, -1.000000000000000000 ) ) ;
#96 = EDGE_LOOP ( 'NONE', ( #32 ) ) ;
#97 = ORIENTED_EDGE ( 'NONE', *, *, #201, .T. ) ;
#98 = DIRECTION ( 'NONE',  ( -5.240625699012932616E-31, -1.000000000000000000, -1.475104996578930529E-16 ) ) ;
#99 = DIRECTION ( 'NONE',  ( 3.491481338843133355E-15, -1.224646799147353207E-16, 1.000000000000000000 ) ) ;
#100 = ADVANCED_FACE ( 'NONE', ( #28 ), #116, .T. ) ;
#101 = DIRECTION ( 'NONE',  ( 5.240625699012932616E-31, 1.000000000000000000, 1.475104996578930529E-16 ) ) ;
#102 = PERSON_AND_ORGANIZATION ( #185, #208 ) ;
#103 = APPROVAL_STATUS ( 'not_yet_approved' ) ;
#104 = CC_DESIGN_DATE_AND_TIME_ASSIGNMENT ( #86, #124, ( #163 ) ) ;
#105 = COORDINATED_UNIVERSAL_TIME_OFFSET ( 1, 0, .AHEAD. ) ;
#106 = MECHANICAL_CONTEXT ( 'NONE', #169, 'mechanical' ) ;
#107 = CALENDAR_DATE ( 2021, 7, 10 ) ;
#108 = LOCAL_TIME ( 15, 47, 25.00000000000000000, #10 ) ;
#109 = DIRECTION ( 'NONE',  ( 0.0000000000000000000, 1.000000000000000000, 0.0000000000000000000 ) ) ;
#110 = CARTESIAN_POINT ( 'NONE',  ( 3.910459099504308727E-14, 0.7349999999999917710, 11.19999999999999751 ) ) ;
#111 = EDGE_CURVE ( 'NONE', #143, #143, #170, .T. ) ;
#112 = LOCAL_TIME ( 15, 47, 25.00000000000000000, #119 ) ;
#113 = CC_DESIGN_PERSON_AND_ORGANIZATION_ASSIGNMENT ( #102, #71, ( #163 ) ) ;
#114 = ORIENTED_EDGE ( 'NONE', *, *, #12, .F. ) ;
#115 = CYLINDRICAL_SURFACE ( 'NONE', #93, 0.7499999999999988898 ) ;
#116 = CONICAL_SURFACE ( 'NONE', #150, 0.7349999999999935474, 1.029744258676649649 ) ;
#117 = CYLINDRICAL_SURFACE ( 'NONE', #8, 0.7349999999999933253 ) ;
#118 = DATE_TIME_ROLE ( 'creation_date' ) ;
#119 = COORDINATED_UNIVERSAL_TIME_OFFSET ( 1, 0, .AHEAD. ) ;
#120 = CC_DESIGN_SECURITY_CLASSIFICATION ( #163, ( #140 ) ) ;
#121 = EDGE_LOOP ( 'NONE', ( #42 ) ) ;
#122 = DATE_AND_TIME ( #222, #58 ) ;
#123 = EDGE_LOOP ( 'NONE', ( #35 ) ) ;
#124 = DATE_TIME_ROLE ( 'classification_date' ) ;
#125 = CONICAL_SURFACE ( 'NONE', #52, 0.5500000000000001554, 0.7853981633974510546 ) ;
#126 = APPROVAL_PERSON_ORGANIZATION ( #176, #164, #191 ) ;
#127 = EDGE_LOOP ( 'NONE', ( #22 ) ) ;
#128 = ADVANCED_FACE ( 'NONE', ( #214 ), #21, .F. ) ;
#129 = CARTESIAN_POINT ( 'NONE',  ( 1.047444401652940007E-13, 4.124339402320053683E-33, 30.00000000000000000 ) ) ;
#130 = DIRECTION ( 'NONE',  ( -3.491481338843133355E-15, 1.224646799147353207E-16, -1.000000000000000000 ) ) ;
#131 = AXIS2_PLACEMENT_3D ( 'NONE', #68, #173, #14 ) ;
#132 =( LENGTH_UNIT ( ) NAMED_UNIT ( * ) SI_UNIT ( .MILLI., .METRE. ) );
#133 = PERSON_AND_ORGANIZATION_ROLE ( 'creator' ) ;
#134 = CC_DESIGN_PERSON_AND_ORGANIZATION_ASSIGNMENT ( #84, #89, ( #160 ) ) ;
#135 = UNCERTAINTY_MEASURE_WITH_UNIT (LENGTH_MEASURE( 1.000000000000000082E-05 ), #132, 'distance_accuracy_value', 'NONE');
#136 = PERSON_AND_ORGANIZATION_ROLE ( 'creator' ) ;
#137 = APPROVAL_DATE_TIME ( #19, #156 ) ;
#138 = AXIS2_PLACEMENT_3D ( 'NONE', #198, #181, #157 ) ;
#139 = AXIS2_PLACEMENT_3D ( 'NONE', #129, #130, #75 ) ;
#140 = PRODUCT_DEFINITION_FORMATION_WITH_SPECIFIED_SOURCE ( 'ANY', '', #160, .NOT_KNOWN. ) ;
#141 = DIRECTION ( 'NONE',  ( -4.275831445896958607E-31, -1.000000000000000000, -1.224646799147353207E-16 ) ) ;
#142 = DIRECTION ( 'NONE',  ( 0.0000000000000000000, 1.000000000000000000, 0.0000000000000000000 ) ) ;
#143 = VERTEX_POINT ( 'NONE', #200 ) ;
#144 = ADVANCED_FACE ( 'NONE', ( #24, #63 ), #125, .T. ) ;
#145 = DIRECTION ( 'NONE',  ( -3.491481338843133355E-15, 1.224646799147353207E-16, -1.000000000000000000 ) ) ;
#146 =( NAMED_UNIT ( * ) SI_UNIT ( $, .STERADIAN. ) SOLID_ANGLE_UNIT ( ) );
#147 = CC_DESIGN_PERSON_AND_ORGANIZATION_ASSIGNMENT ( #193, #210, ( #140 ) ) ;
#148 = EDGE_LOOP ( 'NONE', ( #199 ) ) ;
#149 = COORDINATED_UNIVERSAL_TIME_OFFSET ( 1, 0, .AHEAD. ) ;
#150 = AXIS2_PLACEMENT_3D ( 'NONE', #25, #99, #98 ) ;
#151 = APPROVAL_ROLE ( '' ) ;
#152 = MANIFOLD_SOLID_BREP ( 'Corps-Déplacer/Copier1[1]', #55 ) ;
#153 = APPLICATION_CONTEXT ( 'configuration controlled 3d designs of mechanical parts and assemblies' ) ;
#154 = APPROVAL_DATE_TIME ( #122, #51 ) ;
#155 = AXIS2_PLACEMENT_3D ( 'NONE', #36, #197, #109 ) ;
#156 = APPROVAL ( #218, 'UNSPECIFIED' ) ;
#157 = DIRECTION ( 'NONE',  ( 0.0000000000000000000, 1.000000000000000000, 0.0000000000000000000 ) ) ;
#158 = DIRECTION ( 'NONE',  ( 0.0000000000000000000, 1.000000000000000000, 0.0000000000000000000 ) ) ;
#159 = DIRECTION ( 'NONE',  ( -3.491481338843133355E-15, 1.224646799147353207E-16, -1.000000000000000000 ) ) ;
#160 = PRODUCT ( '37033', '37033', '', ( #106 ) ) ;
#161 = ORIENTED_EDGE ( 'NONE', *, *, #180, .T. ) ;
#162 = AXIS2_PLACEMENT_3D ( 'NONE', #70, #223, #41 ) ;
#163 = SECURITY_CLASSIFICATION ( '', '', #33 ) ;
#164 = APPROVAL ( #103, 'UNSPECIFIED' ) ;
#165 = DIRECTION ( 'NONE',  ( 3.491481338843133355E-15, -1.224646799147353207E-16, 1.000000000000000000 ) ) ;
#166 = DIRECTION ( 'NONE',  ( 0.0000000000000000000, 1.000000000000000000, 0.0000000000000000000 ) ) ;
#167 = CARTESIAN_POINT ( 'NONE',  ( 1.047444401652940007E-13, -3.673940397442059178E-15, 30.00000000000000000 ) ) ;
#168 = FACE_OUTER_BOUND ( 'NONE', #50, .T. ) ;
#169 = APPLICATION_CONTEXT ( 'configuration controlled 3d designs of mechanical parts and assemblies' ) ;
#170 = CIRCLE ( 'NONE', #15, 0.7349999999999935474 ) ;
#171 = APPROVAL_ROLE ( '' ) ;
#172 = ORIENTED_EDGE ( 'NONE', *, *, #43, .T. ) ;
#173 = DIRECTION ( 'NONE',  ( 0.0000000000000000000, 0.0000000000000000000, 1.000000000000000000 ) ) ;
#174 = PERSON_AND_ORGANIZATION ( #185, #208 ) ;
#175 = DIRECTION ( 'NONE',  ( -3.491481338843133355E-15, 1.224646799147353207E-16, -1.000000000000000000 ) ) ;
#176 = PERSON_AND_ORGANIZATION ( #185, #208 ) ;
#177 = EDGE_LOOP ( 'NONE', ( #114 ) ) ;
#178 = CARTESIAN_POINT ( 'NONE',  ( 1.040461438975253740E-13, -3.649447461459112464E-15, 29.80000000000000071 ) ) ;
#179 = CALENDAR_DATE ( 2021, 7, 10 ) ;
#180 = EDGE_CURVE ( 'NONE', #80, #80, #57, .T. ) ;
#181 = DIRECTION ( 'NONE',  ( -3.491481338843133355E-15, 1.224646799147353207E-16, -1.000000000000000000 ) ) ;
#182 = APPROVAL_PERSON_ORGANIZATION ( #48, #51, #151 ) ;
#183 = APPROVAL_PERSON_ORGANIZATION ( #45, #156, #171 ) ;
#184 = CARTESIAN_POINT ( 'NONE',  ( 0.0000000000000000000, 0.0000000000000000000, 0.0000000000000000000 ) ) ;
#185 = PERSON ( 'UNSPECIFIED', 'UNSPECIFIED', 'UNSPECIFIED', ('UNSPECIFIED'), ('UNSPECIFIED'), ('UNSPECIFIED') ) ;
#186 = APPLICATION_PROTOCOL_DEFINITION ( 'international standard', 'config_control_design', 1994, #169 ) ;
#187 = AXIS2_PLACEMENT_3D ( 'NONE', #178, #175, #212 ) ;
#188 = CARTESIAN_POINT ( 'NONE',  ( 0.0000000000000000000, 0.0000000000000000000, 0.0000000000000000000 ) ) ;
#189 = DIRECTION ( 'NONE',  ( -3.491481338843133355E-15, 1.224646799147353207E-16, -1.000000000000000000 ) ) ;
#190 = ADVANCED_FACE ( 'NONE', ( #6, #168 ), #117, .T. ) ;
#191 = APPROVAL_ROLE ( '' ) ;
#192 = SHAPE_DEFINITION_REPRESENTATION ( #196, #29 ) ;
#193 = PERSON_AND_ORGANIZATION ( #185, #208 ) ;
#194 = AXIS2_PLACEMENT_3D ( 'NONE', #91, #54, #209 ) ;
#195 = CC_DESIGN_DATE_AND_TIME_ASSIGNMENT ( #207, #118, ( #20 ) ) ;
#196 = PRODUCT_DEFINITION_SHAPE ( 'NONE', 'NONE',  #20 ) ;
#197 = DIRECTION ( 'NONE',  ( -3.491481338843133355E-15, 1.224646799147353207E-16, -1.000000000000000000 ) ) ;
#198 = CARTESIAN_POINT ( 'NONE',  ( 3.919530234113143133E-14, -1.374786140761210843E-15, 11.22598076211353657 ) ) ;
#199 = ORIENTED_EDGE ( 'NONE', *, *, #56, .F. ) ;
#200 = CARTESIAN_POINT ( 'NONE',  ( 1.541951824356642128E-15, 0.7349999999999935474, 0.4416325549852578858 ) ) ;
#201 = EDGE_CURVE ( 'NONE', #65, #65, #211, .T. ) ;
#202 = CC_DESIGN_PERSON_AND_ORGANIZATION_ASSIGNMENT ( #66, #133, ( #20 ) ) ;
#203 = CARTESIAN_POINT ( 'NONE',  ( 3.910459099504308727E-14, -1.371604415045035316E-15, 11.19999999999999751 ) ) ;
#204 = DIRECTION ( 'NONE',  ( 4.275831445896959482E-31, 1.000000000000000000, 1.224646799147353207E-16 ) ) ;
#205 = ORIENTED_EDGE ( 'NONE', *, *, #111, .T. ) ;
#206 = VERTEX_POINT ( 'NONE', #110 ) ;
#207 = DATE_AND_TIME ( #44, #108 ) ;
#208 = ORGANIZATION ( 'UNSPECIFIED', 'UNSPECIFIED', '' ) ;
#209 = DIRECTION ( 'NONE',  ( -4.275831445896958607E-31, -1.000000000000000000, -1.224646799147353207E-16 ) ) ;
#210 = PERSON_AND_ORGANIZATION_ROLE ( 'design_supplier' ) ;
#211 = CIRCLE ( 'NONE', #37, 0.5500000000000001554 ) ;
#212 = DIRECTION ( 'NONE',  ( 0.0000000000000000000, 1.000000000000000000, 0.0000000000000000000 ) ) ;
#213 = PRODUCT_RELATED_PRODUCT_CATEGORY ( 'detail', '', ( #160 ) ) ;
#214 = FACE_OUTER_BOUND ( 'NONE', #11, .T. ) ;
#215 = DIRECTION ( 'NONE',  ( -3.491481338843133355E-15, 1.224646799147353207E-16, -1.000000000000000000 ) ) ;
#216 = CARTESIAN_POINT ( 'NONE',  ( 3.910459099504308727E-14, 0.7349999999999917710, 11.19999999999999751 ) ) ;
#217 = AXIS2_PLACEMENT_3D ( 'NONE', #203, #189, #158 ) ;
#218 = APPROVAL_STATUS ( 'not_yet_approved' ) ;
#219 = CIRCLE ( 'NONE', #138, 0.7499999999999977796 ) ;
#220 = FACE_OUTER_BOUND ( 'NONE', #127, .T. ) ;
#221 = FACE_OUTER_BOUND ( 'NONE', #96, .T. ) ;
#222 = CALENDAR_DATE ( 2021, 7, 10 ) ;
#223 = DIRECTION ( 'NONE',  ( 3.491481338843133355E-15, -1.224646799147353207E-16, 1.000000000000000000 ) ) ;
ENDSEC;
END-ISO-10303-21;
