ISO-10303-21;
HEADER;
FILE_DESCRIPTION (( 'STEP AP203' ),
    '1' );
FILE_NAME ('37032.step',
    '2021-10-07T13:47:24',
    ( '' ),
    ( '' ),
    'SwSTEP 2.0',
    'SolidWorks 2019',
    '' );
FILE_SCHEMA (( 'CONFIG_CONTROL_DESIGN' ));
ENDSEC;

DATA;
#1 = FACE_OUTER_BOUND ( 'NONE', #78, .T. ) ;
#2 = AXIS2_PLACEMENT_3D ( 'NONE', #158, #74, #219 ) ;
#3 = CIRCLE ( 'NONE', #138, 0.7299999999999935429 ) ;
#4 = CARTESIAN_POINT ( 'NONE',  ( 1.531462356163739056E-15, -5.371646846928344184E-17, 0.4386282518901199468 ) ) ;
#5 = APPROVAL_DATE_TIME ( #197, #140 ) ;
#6 = EDGE_CURVE ( 'NONE', #180, #180, #207, .T. ) ;
#7 = ADVANCED_BREP_SHAPE_REPRESENTATION ( '37032', ( #157, #88, #152 ), #179 ) ;
#8 = DATE_TIME_ROLE ( 'classification_date' ) ;
#9 = FACE_OUTER_BOUND ( 'NONE', #215, .T. ) ;
#10 = EDGE_LOOP ( 'NONE', ( #120 ) ) ;
#11 = ORIENTED_EDGE ( 'NONE', *, *, #150, .F. ) ;
#12 = CC_DESIGN_PERSON_AND_ORGANIZATION_ASSIGNMENT ( #81, #91, ( #121 ) ) ;
#13 = PERSON_AND_ORGANIZATION ( #16, #106 ) ;
#14 = CC_DESIGN_PERSON_AND_ORGANIZATION_ASSIGNMENT ( #29, #85, ( #187 ) ) ;
#15 = DIRECTION ( 'NONE',  ( -5.276520395581515180E-31, -1.000000000000000000, -1.485208455459608370E-16 ) ) ;
#16 = PERSON ( 'UNSPECIFIED', 'UNSPECIFIED', 'UNSPECIFIED', ('UNSPECIFIED'), ('UNSPECIFIED'), ('UNSPECIFIED') ) ;
#17 = LOCAL_TIME ( 15, 47, 24.00000000000000000, #206 ) ;
#18 = ORIENTED_EDGE ( 'NONE', *, *, #99, .F. ) ;
#19 = DIRECTION ( 'NONE',  ( -3.491481338843133355E-15, 1.224646799147353207E-16, -1.000000000000000000 ) ) ;
#20 = ORIENTED_EDGE ( 'NONE', *, *, #111, .F. ) ;
#21 = APPROVAL_STATUS ( 'not_yet_approved' ) ;
#22 = VERTEX_POINT ( 'NONE', #61 ) ;
#23 = CONICAL_SURFACE ( 'NONE', #51, 0.5500000000000001554, 0.7853981633974510546 ) ;
#24 = CC_DESIGN_APPROVAL ( #140, ( #90 ) ) ;
#25 = CARTESIAN_POINT ( 'NONE',  ( 3.910459099504309358E-14, 5.474123206715736067E-33, 11.19999999999999929 ) ) ;
#26 = CARTESIAN_POINT ( 'NONE',  ( 3.910459099504309358E-14, 5.474123206715736067E-33, 11.19999999999999929 ) ) ;
#27 = CYLINDRICAL_SURFACE ( 'NONE', #186, 0.7299999999999952083 ) ;
#28 = CLOSED_SHELL ( 'NONE', ( #156, #56, #131, #96, #84 ) ) ;
#29 = PERSON_AND_ORGANIZATION ( #16, #106 ) ;
#30 = EDGE_LOOP ( 'NONE', ( #11 ) ) ;
#31 = ORIENTED_EDGE ( 'NONE', *, *, #216, .F. ) ;
#32 = CC_DESIGN_PERSON_AND_ORGANIZATION_ASSIGNMENT ( #123, #124, ( #202 ) ) ;
#33 = MECHANICAL_CONTEXT ( 'NONE', #60, 'mechanical' ) ;
#34 = AXIS2_PLACEMENT_3D ( 'NONE', #26, #129, #105 ) ;
#35 = FACE_OUTER_BOUND ( 'NONE', #153, .T. ) ;
#36 = EDGE_LOOP ( 'NONE', ( #31 ) ) ;
#37 = DIRECTION ( 'NONE',  ( 1.000000000000000000, 0.0000000000000000000, 0.0000000000000000000 ) ) ;
#38 = DIRECTION ( 'NONE',  ( 4.275831445896958607E-31, 1.000000000000000000, 1.224646799147353207E-16 ) ) ;
#39 = FACE_OUTER_BOUND ( 'NONE', #214, .T. ) ;
#40 = APPROVAL_ROLE ( '' ) ;
#41 = DIRECTION ( 'NONE',  ( 3.491481338843133355E-15, -1.224646799147353207E-16, 1.000000000000000000 ) ) ;
#42 = DIRECTION ( 'NONE',  ( -3.491481338843133355E-15, 1.224646799147353207E-16, -1.000000000000000000 ) ) ;
#43 = CARTESIAN_POINT ( 'NONE',  ( 1.047444401652940007E-13, -3.673940397442059178E-15, 30.00000000000000000 ) ) ;
#44 = DIRECTION ( 'NONE',  ( 0.0000000000000000000, 1.000000000000000000, 0.0000000000000000000 ) ) ;
#45 = PERSON_AND_ORGANIZATION ( #16, #106 ) ;
#46 = COORDINATED_UNIVERSAL_TIME_OFFSET ( 1, 0, .AHEAD. ) ;
#47 = CLOSED_SHELL ( 'NONE', ( #53, #139, #160 ) ) ;
#48 = CONICAL_SURFACE ( 'NONE', #213, 0.7299999999999935429, 1.029744258676649649 ) ;
#49 = PERSON_AND_ORGANIZATION ( #16, #106 ) ;
#50 = APPLICATION_PROTOCOL_DEFINITION ( 'international standard', 'config_control_design', 1994, #95 ) ;
#51 = AXIS2_PLACEMENT_3D ( 'NONE', #43, #19, #62 ) ;
#52 = DATE_TIME_ROLE ( 'creation_date' ) ;
#53 = ADVANCED_FACE ( 'NONE', ( #155 ), #48, .T. ) ;
#54 = CALENDAR_DATE ( 2021, 7, 10 ) ;
#55 = AXIS2_PLACEMENT_3D ( 'NONE', #112, #177, #38 ) ;
#56 = ADVANCED_FACE ( 'NONE', ( #126, #39 ), #185, .T. ) ;
#57 =( LENGTH_UNIT ( ) NAMED_UNIT ( * ) SI_UNIT ( .MILLI., .METRE. ) );
#58 = EDGE_LOOP ( 'NONE', ( #69 ) ) ;
#59 = FACE_OUTER_BOUND ( 'NONE', #10, .T. ) ;
#60 = APPLICATION_CONTEXT ( 'configuration controlled 3d designs of mechanical parts and assemblies' ) ;
#61 = CARTESIAN_POINT ( 'NONE',  ( 3.922553945649420637E-14, 0.7499999999999963363, 11.23464101615138233 ) ) ;
#62 = DIRECTION ( 'NONE',  ( 0.0000000000000000000, 1.000000000000000000, 0.0000000000000000000 ) ) ;
#63 = CARTESIAN_POINT ( 'NONE',  ( 0.0000000000000000000, 0.0000000000000000000, 0.0000000000000000000 ) ) ;
#64 = APPROVAL_STATUS ( 'not_yet_approved' ) ;
#65 = PERSON_AND_ORGANIZATION_ROLE ( 'classification_officer' ) ;
#66 = ORIENTED_EDGE ( 'NONE', *, *, #75, .F. ) ;
#67 = LOCAL_TIME ( 15, 47, 24.00000000000000000, #220 ) ;
#68 = EDGE_LOOP ( 'NONE', ( #104 ) ) ;
#69 = ORIENTED_EDGE ( 'NONE', *, *, #216, .T. ) ;
#70 = UNCERTAINTY_MEASURE_WITH_UNIT (LENGTH_MEASURE( 1.000000000000000082E-05 ), #57, 'distance_accuracy_value', 'NONE');
#71 = APPROVAL_STATUS ( 'not_yet_approved' ) ;
#72 = CARTESIAN_POINT ( 'NONE',  ( 3.922553945649420637E-14, -1.375846715999935887E-15, 11.23464101615138233 ) ) ;
#73 = DIRECTION ( 'NONE',  ( 3.491481338843133355E-15, -1.224646799147353207E-16, 1.000000000000000000 ) ) ;
#74 = DIRECTION ( 'NONE',  ( -3.491481338843133355E-15, 1.224646799147353207E-16, -1.000000000000000000 ) ) ;
#75 = EDGE_CURVE ( 'NONE', #22, #22, #109, .T. ) ;
#76 = AXIS2_PLACEMENT_3D ( 'NONE', #145, #208, #184 ) ;
#77 = DIRECTION ( 'NONE',  ( -4.275831445896958607E-31, -1.000000000000000000, -1.224646799147353207E-16 ) ) ;
#78 = EDGE_LOOP ( 'NONE', ( #18 ) ) ;
#79 = CARTESIAN_POINT ( 'NONE',  ( 3.910459099504309358E-14, -1.371604415045035513E-15, 11.19999999999999929 ) ) ;
#80 = ORIENTED_EDGE ( 'NONE', *, *, #6, .T. ) ;
#81 = PERSON_AND_ORGANIZATION ( #16, #106 ) ;
#82 = DIRECTION ( 'NONE',  ( -3.491481338843133355E-15, 1.224646799147353207E-16, -1.000000000000000000 ) ) ;
#83 = CARTESIAN_POINT ( 'NONE',  ( 3.910459099504309358E-14, 0.7299999999999954303, 11.19999999999999929 ) ) ;
#84 = ADVANCED_FACE ( 'NONE', ( #35 ), #189, .F. ) ;
#85 = PERSON_AND_ORGANIZATION_ROLE ( 'design_supplier' ) ;
#86 = LOCAL_TIME ( 15, 47, 24.00000000000000000, #114 ) ;
#87 = ORIENTED_EDGE ( 'NONE', *, *, #6, .F. ) ;
#88 = MANIFOLD_SOLID_BREP ( 'Corps-Déplacer/Copier1[2]', #47 ) ;
#89 = CC_DESIGN_PERSON_AND_ORGANIZATION_ASSIGNMENT ( #168, #65, ( #90 ) ) ;
#90 = SECURITY_CLASSIFICATION ( '', '', #146 ) ;
#91 = PERSON_AND_ORGANIZATION_ROLE ( 'creator' ) ;
#92 = CARTESIAN_POINT ( 'NONE',  ( 3.922553945649420637E-14, -1.375846715999935887E-15, 11.23464101615138233 ) ) ;
#93 = CALENDAR_DATE ( 2021, 7, 10 ) ;
#94 = AXIS2_PLACEMENT_3D ( 'NONE', #25, #41, #77 ) ;
#95 = APPLICATION_CONTEXT ( 'configuration controlled 3d designs of mechanical parts and assemblies' ) ;
#96 = ADVANCED_FACE ( 'NONE', ( #1, #118 ), #23, .T. ) ;
#97 = FACE_OUTER_BOUND ( 'NONE', #141, .T. ) ;
#98 = CARTESIAN_POINT ( 'NONE',  ( 3.910459099504309358E-14, -1.371604415045035513E-15, 11.19999999999999929 ) ) ;
#99 = EDGE_CURVE ( 'NONE', #167, #167, #162, .T. ) ;
#100 = VERTEX_POINT ( 'NONE', #83 ) ;
#101 = CALENDAR_DATE ( 2021, 7, 10 ) ;
#102 = CARTESIAN_POINT ( 'NONE',  ( 1.047444401652940007E-13, 0.5499999999999964917, 30.00000000000000000 ) ) ;
#103 = CARTESIAN_POINT ( 'NONE',  ( 0.0000000000000000000, 0.0000000000000000000, 0.0000000000000000000 ) ) ;
#104 = ORIENTED_EDGE ( 'NONE', *, *, #150, .T. ) ;
#105 = DIRECTION ( 'NONE',  ( -4.275831445896958607E-31, -1.000000000000000000, -1.224646799147353207E-16 ) ) ;
#106 = ORGANIZATION ( 'UNSPECIFIED', 'UNSPECIFIED', '' ) ;
#107 = APPROVAL ( #71, 'UNSPECIFIED' ) ;
#108 = ORIENTED_EDGE ( 'NONE', *, *, #99, .T. ) ;
#109 = CIRCLE ( 'NONE', #147, 0.7499999999999977796 ) ;
#110 = CC_DESIGN_SECURITY_CLASSIFICATION ( #90, ( #187 ) ) ;
#111 = EDGE_CURVE ( 'NONE', #165, #165, #170, .T. ) ;
#112 = CARTESIAN_POINT ( 'NONE',  ( 1.047444401652940007E-13, 4.124339402320053683E-33, 30.00000000000000000 ) ) ;
#113 = APPROVAL_PERSON_ORGANIZATION ( #133, #140, #209 ) ;
#114 = COORDINATED_UNIVERSAL_TIME_OFFSET ( 1, 0, .AHEAD. ) ;
#115 = EDGE_LOOP ( 'NONE', ( #20 ) ) ;
#116 = DIRECTION ( 'NONE',  ( -3.491481338843133355E-15, 1.224646799147353207E-16, -1.000000000000000000 ) ) ;
#117 = VERTEX_POINT ( 'NONE', #182 ) ;
#118 = FACE_BOUND ( 'NONE', #171, .T. ) ;
#119 = APPROVAL_PERSON_ORGANIZATION ( #13, #127, #200 ) ;
#120 = ORIENTED_EDGE ( 'NONE', *, *, #111, .T. ) ;
#121 = PRODUCT_DEFINITION ( 'UNKNOWN', '', #187, #217 ) ;
#122 = CC_DESIGN_APPROVAL ( #127, ( #121 ) ) ;
#123 = PERSON_AND_ORGANIZATION ( #16, #106 ) ;
#124 = PERSON_AND_ORGANIZATION_ROLE ( 'design_owner' ) ;
#125 = DIRECTION ( 'NONE',  ( -3.491481338843133355E-15, 1.224646799147353207E-16, -1.000000000000000000 ) ) ;
#126 = FACE_BOUND ( 'NONE', #36, .T. ) ;
#127 = APPROVAL ( #64, 'UNSPECIFIED' ) ;
#128 = SHAPE_DEFINITION_REPRESENTATION ( #194, #7 ) ;
#129 = DIRECTION ( 'NONE',  ( 3.491481338843133355E-15, -1.224646799147353207E-16, 1.000000000000000000 ) ) ;
#130 = DIRECTION ( 'NONE',  ( -3.491481338843133355E-15, 1.224646799147353207E-16, -1.000000000000000000 ) ) ;
#131 = ADVANCED_FACE ( 'NONE', ( #9, #97 ), #151, .T. ) ;
#132 = CARTESIAN_POINT ( 'NONE',  ( 1.040461438975253740E-13, 0.7499999999999963363, 29.80000000000000071 ) ) ;
#133 = PERSON_AND_ORGANIZATION ( #16, #106 ) ;
#134 = CC_DESIGN_APPROVAL ( #107, ( #187 ) ) ;
#135 = DIRECTION ( 'NONE',  ( 0.0000000000000000000, 1.000000000000000000, 0.0000000000000000000 ) ) ;
#136 = DIRECTION ( 'NONE',  ( 4.275831445896958607E-31, 1.000000000000000000, 1.224646799147353207E-16 ) ) ;
#137 = AXIS2_PLACEMENT_3D ( 'NONE', #92, #73, #221 ) ;
#138 = AXIS2_PLACEMENT_3D ( 'NONE', #4, #82, #211 ) ;
#139 = ADVANCED_FACE ( 'NONE', ( #210, #59 ), #27, .T. ) ;
#140 = APPROVAL ( #21, 'UNSPECIFIED' ) ;
#141 = EDGE_LOOP ( 'NONE', ( #108 ) ) ;
#142 = CC_DESIGN_PERSON_AND_ORGANIZATION_ASSIGNMENT ( #45, #218, ( #187 ) ) ;
#143 = DIRECTION ( 'NONE',  ( 3.491481338843133355E-15, -1.224646799147353207E-16, 1.000000000000000000 ) ) ;
#144 = CIRCLE ( 'NONE', #163, 0.7299999999999968736 ) ;
#145 = CARTESIAN_POINT ( 'NONE',  ( 1.040461438975253740E-13, -3.649447461459112464E-15, 29.80000000000000071 ) ) ;
#146 = SECURITY_CLASSIFICATION_LEVEL ( 'unclassified' ) ;
#147 = AXIS2_PLACEMENT_3D ( 'NONE', #72, #125, #188 ) ;
#148 =( NAMED_UNIT ( * ) PLANE_ANGLE_UNIT ( ) SI_UNIT ( $, .RADIAN. ) );
#149 = CC_DESIGN_DATE_AND_TIME_ASSIGNMENT ( #222, #52, ( #121 ) ) ;
#150 = EDGE_CURVE ( 'NONE', #117, #117, #3, .T. ) ;
#151 = CYLINDRICAL_SURFACE ( 'NONE', #173, 0.7499999999999988898 ) ;
#152 = AXIS2_PLACEMENT_3D ( 'NONE', #103, #166, #37 ) ;
#153 = EDGE_LOOP ( 'NONE', ( #87 ) ) ;
#154 = LOCAL_TIME ( 15, 47, 24.00000000000000000, #46 ) ;
#155 = FACE_OUTER_BOUND ( 'NONE', #68, .T. ) ;
#156 = ADVANCED_FACE ( 'NONE', ( #161 ), #195, .F. ) ;
#157 = MANIFOLD_SOLID_BREP ( 'Corps-Déplacer/Copier1[1]', #28 ) ;
#158 = CARTESIAN_POINT ( 'NONE',  ( 1.047444401652940007E-13, -3.673940397442059178E-15, 30.00000000000000000 ) ) ;
#159 = DATE_AND_TIME ( #178, #204 ) ;
#160 = ADVANCED_FACE ( 'NONE', ( #198 ), #181, .T. ) ;
#161 = FACE_OUTER_BOUND ( 'NONE', #58, .T. ) ;
#162 = CIRCLE ( 'NONE', #76, 0.7500000000000000000 ) ;
#163 = AXIS2_PLACEMENT_3D ( 'NONE', #79, #130, #44 ) ;
#164 = CARTESIAN_POINT ( 'NONE',  ( 0.0000000000000000000, 0.0000000000000000000, 0.0000000000000000000 ) ) ;
#165 = VERTEX_POINT ( 'NONE', #196 ) ;
#166 = DIRECTION ( 'NONE',  ( 0.0000000000000000000, 0.0000000000000000000, 1.000000000000000000 ) ) ;
#167 = VERTEX_POINT ( 'NONE', #132 ) ;
#168 = PERSON_AND_ORGANIZATION ( #16, #106 ) ;
#169 = ORIENTED_EDGE ( 'NONE', *, *, #75, .T. ) ;
#170 = CIRCLE ( 'NONE', #192, 0.7299999999999968736 ) ;
#171 = EDGE_LOOP ( 'NONE', ( #80 ) ) ;
#172 = APPROVAL_DATE_TIME ( #205, #127 ) ;
#173 = AXIS2_PLACEMENT_3D ( 'NONE', #164, #42, #212 ) ;
#174 = APPLICATION_PROTOCOL_DEFINITION ( 'international standard', 'config_control_design', 1994, #60 ) ;
#175 = CALENDAR_DATE ( 2021, 7, 10 ) ;
#176 = CARTESIAN_POINT ( 'NONE',  ( 1.531462356163739056E-15, -5.371646846928344184E-17, 0.4386282518901199468 ) ) ;
#177 = DIRECTION ( 'NONE',  ( -3.491481338843133355E-15, 1.224646799147353207E-16, -1.000000000000000000 ) ) ;
#178 = CALENDAR_DATE ( 2021, 7, 10 ) ;
#179 =( GEOMETRIC_REPRESENTATION_CONTEXT ( 3 ) GLOBAL_UNCERTAINTY_ASSIGNED_CONTEXT ( ( #70 ) ) GLOBAL_UNIT_ASSIGNED_CONTEXT ( ( #57, #148, #193 ) ) REPRESENTATION_CONTEXT ( 'NONE', 'WORKASPACE' ) );
#180 = VERTEX_POINT ( 'NONE', #102 ) ;
#181 = PLANE ( 'NONE',  #34 ) ;
#182 = CARTESIAN_POINT ( 'NONE',  ( 1.531462356163739451E-15, 0.7299999999999935429, 0.4386282518901200578 ) ) ;
#183 = DIRECTION ( 'NONE',  ( -3.491481338843133355E-15, 1.224646799147353207E-16, -1.000000000000000000 ) ) ;
#184 = DIRECTION ( 'NONE',  ( 0.0000000000000000000, 1.000000000000000000, 0.0000000000000000000 ) ) ;
#185 = CONICAL_SURFACE ( 'NONE', #137, 0.7499999999999977796, 0.5235987755982568492 ) ;
#186 = AXIS2_PLACEMENT_3D ( 'NONE', #63, #116, #136 ) ;
#187 = PRODUCT_DEFINITION_FORMATION_WITH_SPECIFIED_SOURCE ( 'ANY', '', #202, .NOT_KNOWN. ) ;
#188 = DIRECTION ( 'NONE',  ( 0.0000000000000000000, 1.000000000000000000, 0.0000000000000000000 ) ) ;
#189 = PLANE ( 'NONE',  #55 ) ;
#190 = DATE_AND_TIME ( #54, #86 ) ;
#191 = COORDINATED_UNIVERSAL_TIME_OFFSET ( 1, 0, .AHEAD. ) ;
#192 = AXIS2_PLACEMENT_3D ( 'NONE', #98, #183, #135 ) ;
#193 =( NAMED_UNIT ( * ) SI_UNIT ( $, .STERADIAN. ) SOLID_ANGLE_UNIT ( ) );
#194 = PRODUCT_DEFINITION_SHAPE ( 'NONE', 'NONE',  #121 ) ;
#195 = PLANE ( 'NONE',  #94 ) ;
#196 = CARTESIAN_POINT ( 'NONE',  ( 3.910459099504309358E-14, 0.7299999999999954303, 11.19999999999999929 ) ) ;
#197 = DATE_AND_TIME ( #101, #17 ) ;
#198 = FACE_OUTER_BOUND ( 'NONE', #115, .T. ) ;
#199 = CC_DESIGN_DATE_AND_TIME_ASSIGNMENT ( #159, #8, ( #90 ) ) ;
#200 = APPROVAL_ROLE ( '' ) ;
#201 = PRODUCT_RELATED_PRODUCT_CATEGORY ( 'detail', '', ( #202 ) ) ;
#202 = PRODUCT ( '37032', '37032', '', ( #33 ) ) ;
#203 = APPROVAL_DATE_TIME ( #190, #107 ) ;
#204 = LOCAL_TIME ( 15, 47, 24.00000000000000000, #191 ) ;
#205 = DATE_AND_TIME ( #175, #154 ) ;
#206 = COORDINATED_UNIVERSAL_TIME_OFFSET ( 1, 0, .AHEAD. ) ;
#207 = CIRCLE ( 'NONE', #2, 0.5500000000000001554 ) ;
#208 = DIRECTION ( 'NONE',  ( -3.491481338843133355E-15, 1.224646799147353207E-16, -1.000000000000000000 ) ) ;
#209 = APPROVAL_ROLE ( '' ) ;
#210 = FACE_OUTER_BOUND ( 'NONE', #30, .T. ) ;
#211 = DIRECTION ( 'NONE',  ( 5.276520395581515180E-31, 1.000000000000000000, 1.485208455459608370E-16 ) ) ;
#212 = DIRECTION ( 'NONE',  ( 4.275831445896959482E-31, 1.000000000000000000, 1.224646799147353207E-16 ) ) ;
#213 = AXIS2_PLACEMENT_3D ( 'NONE', #176, #143, #15 ) ;
#214 = EDGE_LOOP ( 'NONE', ( #169 ) ) ;
#215 = EDGE_LOOP ( 'NONE', ( #66 ) ) ;
#216 = EDGE_CURVE ( 'NONE', #100, #100, #144, .T. ) ;
#217 = DESIGN_CONTEXT ( 'detailed design', #95, 'design' ) ;
#218 = PERSON_AND_ORGANIZATION_ROLE ( 'creator' ) ;
#219 = DIRECTION ( 'NONE',  ( 0.0000000000000000000, 1.000000000000000000, 0.0000000000000000000 ) ) ;
#220 = COORDINATED_UNIVERSAL_TIME_OFFSET ( 1, 0, .AHEAD. ) ;
#221 = DIRECTION ( 'NONE',  ( 0.0000000000000000000, -1.000000000000000000, 0.0000000000000000000 ) ) ;
#222 = DATE_AND_TIME ( #93, #67 ) ;
#223 = APPROVAL_PERSON_ORGANIZATION ( #49, #107, #40 ) ;
ENDSEC;
END-ISO-10303-21;
