ISO-10303-21;
HEADER;
FILE_DESCRIPTION (( 'STEP AP203' ),
    '1' );
FILE_NAME ('37031.step',
    '2021-10-07T13:47:24',
    ( '' ),
    ( '' ),
    'SwSTEP 2.0',
    'SolidWorks 2019',
    '' );
FILE_SCHEMA (( 'CONFIG_CONTROL_DESIGN' ));
ENDSEC;

DATA;
#1 = DATE_AND_TIME ( #159, #120 ) ;
#2 = AXIS2_PLACEMENT_3D ( 'NONE', #184, #185, #96 ) ;
#3 = EDGE_CURVE ( 'NONE', #211, #211, #100, .T. ) ;
#4 = CC_DESIGN_PERSON_AND_ORGANIZATION_ASSIGNMENT ( #70, #29, ( #217 ) ) ;
#5 = ADVANCED_FACE ( 'NONE', ( #210 ), #37, .F. ) ;
#6 = DIRECTION ( 'NONE',  ( -3.491481338843133355E-15, 1.224646799147353207E-16, -1.000000000000000000 ) ) ;
#7 = CC_DESIGN_DATE_AND_TIME_ASSIGNMENT ( #118, #136, ( #20 ) ) ;
#8 = CYLINDRICAL_SURFACE ( 'NONE', #2, 0.7199999999999945333 ) ;
#9 = EDGE_LOOP ( 'NONE', ( #149 ) ) ;
#10 = AXIS2_PLACEMENT_3D ( 'NONE', #35, #154, #122 ) ;
#11 = DIRECTION ( 'NONE',  ( -3.491481338843133355E-15, 1.224646799147353207E-16, -1.000000000000000000 ) ) ;
#12 = UNCERTAINTY_MEASURE_WITH_UNIT (LENGTH_MEASURE( 1.000000000000000082E-05 ), #74, 'distance_accuracy_value', 'NONE');
#13 = CARTESIAN_POINT ( 'NONE',  ( 1.047444401652940007E-13, 4.124339402320053683E-33, 30.00000000000000000 ) ) ;
#14 = DATE_AND_TIME ( #30, #130 ) ;
#15 = COORDINATED_UNIVERSAL_TIME_OFFSET ( 1, 0, .AHEAD. ) ;
#16 = EDGE_CURVE ( 'NONE', #144, #144, #204, .T. ) ;
#17 = APPROVAL_ROLE ( '' ) ;
#18 = EDGE_LOOP ( 'NONE', ( #183 ) ) ;
#19 = CARTESIAN_POINT ( 'NONE',  ( 1.040461438975253740E-13, 0.7499999999999963363, 29.80000000000000071 ) ) ;
#20 = PRODUCT_DEFINITION ( 'UNKNOWN', '', #106, #114 ) ;
#21 = CARTESIAN_POINT ( 'NONE',  ( 3.910459099504309358E-14, 5.399135217582633061E-33, 11.19999999999999929 ) ) ;
#22 = LOCAL_TIME ( 15, 47, 24.00000000000000000, #65 ) ;
#23 = CARTESIAN_POINT ( 'NONE',  ( 1.047444401652940007E-13, -3.673940397442059178E-15, 30.00000000000000000 ) ) ;
#24 = VERTEX_POINT ( 'NONE', #116 ) ;
#25 = CARTESIAN_POINT ( 'NONE',  ( 3.910459099504309358E-14, 0.7199999999999940892, 11.19999999999999929 ) ) ;
#26 = SHAPE_DEFINITION_REPRESENTATION ( #186, #38 ) ;
#27 = APPROVAL_PERSON_ORGANIZATION ( #192, #107, #83 ) ;
#28 = PERSON_AND_ORGANIZATION ( #175, #77 ) ;
#29 = PERSON_AND_ORGANIZATION_ROLE ( 'design_owner' ) ;
#30 = CALENDAR_DATE ( 2021, 7, 10 ) ;
#31 = CARTESIAN_POINT ( 'NONE',  ( 1.510483419777934096E-15, -5.298062643545762868E-17, 0.4326196456998442352 ) ) ;
#32 = AXIS2_PLACEMENT_3D ( 'NONE', #56, #6, #44 ) ;
#33 = APPROVAL_STATUS ( 'not_yet_approved' ) ;
#34 = CC_DESIGN_PERSON_AND_ORGANIZATION_ASSIGNMENT ( #28, #171, ( #20 ) ) ;
#35 = CARTESIAN_POINT ( 'NONE',  ( 3.910459099504309358E-14, -1.371604415045035513E-15, 11.19999999999999929 ) ) ;
#36 = AXIS2_PLACEMENT_3D ( 'NONE', #150, #162, #128 ) ;
#37 = PLANE ( 'NONE',  #151 ) ;
#38 = ADVANCED_BREP_SHAPE_REPRESENTATION ( '37031', ( #68, #219, #97 ), #115 ) ;
#39 = DIRECTION ( 'NONE',  ( 3.491481338843133355E-15, -1.224646799147353207E-16, 1.000000000000000000 ) ) ;
#40 = FACE_BOUND ( 'NONE', #146, .T. ) ;
#41 = ORIENTED_EDGE ( 'NONE', *, *, #16, .T. ) ;
#42 = APPROVAL ( #173, 'UNSPECIFIED' ) ;
#43 = CLOSED_SHELL ( 'NONE', ( #5, #148, #147, #169, #131 ) ) ;
#44 = DIRECTION ( 'NONE',  ( 5.349805401075703414E-31, 1.000000000000000000, 1.505836350674325300E-16 ) ) ;
#45 = CARTESIAN_POINT ( 'NONE',  ( 3.928601368721975646E-14, -1.377967866477385581E-15, 11.25196152422707030 ) ) ;
#46 = VERTEX_POINT ( 'NONE', #19 ) ;
#47 = APPROVAL_DATE_TIME ( #14, #42 ) ;
#48 = AXIS2_PLACEMENT_3D ( 'NONE', #91, #64, #197 ) ;
#49 = SECURITY_CLASSIFICATION_LEVEL ( 'unclassified' ) ;
#50 = MECHANICAL_CONTEXT ( 'NONE', #79, 'mechanical' ) ;
#51 = DATE_AND_TIME ( #189, #163 ) ;
#52 = CC_DESIGN_PERSON_AND_ORGANIZATION_ASSIGNMENT ( #155, #223, ( #106 ) ) ;
#53 = ORIENTED_EDGE ( 'NONE', *, *, #190, .T. ) ;
#54 = AXIS2_PLACEMENT_3D ( 'NONE', #31, #170, #180 ) ;
#55 = DIRECTION ( 'NONE',  ( -3.491481338843133355E-15, 1.224646799147353207E-16, -1.000000000000000000 ) ) ;
#56 = CARTESIAN_POINT ( 'NONE',  ( 1.510483419777934096E-15, -5.298062643545762868E-17, 0.4326196456998442352 ) ) ;
#57 = EDGE_LOOP ( 'NONE', ( #105 ) ) ;
#58 = DIRECTION ( 'NONE',  ( 3.491481338843133355E-15, -1.224646799147353207E-16, 1.000000000000000000 ) ) ;
#59 = ORIENTED_EDGE ( 'NONE', *, *, #142, .T. ) ;
#60 = ORIENTED_EDGE ( 'NONE', *, *, #3, .T. ) ;
#61 = ORIENTED_EDGE ( 'NONE', *, *, #127, .T. ) ;
#62 = PLANE ( 'NONE',  #214 ) ;
#63 = CONICAL_SURFACE ( 'NONE', #54, 0.7199999999999935341, 1.029744258676649649 ) ;
#64 = DIRECTION ( 'NONE',  ( -3.491481338843133355E-15, 1.224646799147353207E-16, -1.000000000000000000 ) ) ;
#65 = COORDINATED_UNIVERSAL_TIME_OFFSET ( 1, 0, .AHEAD. ) ;
#66 = CALENDAR_DATE ( 2021, 7, 10 ) ;
#67 = CARTESIAN_POINT ( 'NONE',  ( 0.0000000000000000000, 0.0000000000000000000, 0.0000000000000000000 ) ) ;
#68 = MANIFOLD_SOLID_BREP ( 'Corps-Déplacer/Copier1[1]', #43 ) ;
#69 = DIRECTION ( 'NONE',  ( -3.491481338843133355E-15, 1.224646799147353207E-16, -1.000000000000000000 ) ) ;
#70 = PERSON_AND_ORGANIZATION ( #175, #77 ) ;
#71 = AXIS2_PLACEMENT_3D ( 'NONE', #164, #55, #76 ) ;
#72 = EDGE_LOOP ( 'NONE', ( #108 ) ) ;
#73 = EDGE_LOOP ( 'NONE', ( #158 ) ) ;
#74 =( LENGTH_UNIT ( ) NAMED_UNIT ( * ) SI_UNIT ( .MILLI., .METRE. ) );
#75 = CARTESIAN_POINT ( 'NONE',  ( 0.0000000000000000000, 0.0000000000000000000, 0.0000000000000000000 ) ) ;
#76 = DIRECTION ( 'NONE',  ( 0.0000000000000000000, 1.000000000000000000, 0.0000000000000000000 ) ) ;
#77 = ORGANIZATION ( 'UNSPECIFIED', 'UNSPECIFIED', '' ) ;
#78 = ADVANCED_FACE ( 'NONE', ( #193 ), #63, .T. ) ;
#79 = APPLICATION_CONTEXT ( 'configuration controlled 3d designs of mechanical parts and assemblies' ) ;
#80 = DIRECTION ( 'NONE',  ( 0.0000000000000000000, 1.000000000000000000, 0.0000000000000000000 ) ) ;
#81 = FACE_OUTER_BOUND ( 'NONE', #57, .T. ) ;
#82 = CIRCLE ( 'NONE', #32, 0.7199999999999935341 ) ;
#83 = APPROVAL_ROLE ( '' ) ;
#84 = CALENDAR_DATE ( 2021, 7, 10 ) ;
#85 = CARTESIAN_POINT ( 'NONE',  ( 3.910459099504309358E-14, 5.399135217582633061E-33, 11.19999999999999929 ) ) ;
#86 = CC_DESIGN_APPROVAL ( #42, ( #20 ) ) ;
#87 = APPROVAL_DATE_TIME ( #205, #107 ) ;
#88 = PRODUCT_RELATED_PRODUCT_CATEGORY ( 'detail', '', ( #217 ) ) ;
#89 = COORDINATED_UNIVERSAL_TIME_OFFSET ( 1, 0, .AHEAD. ) ;
#90 = ADVANCED_FACE ( 'NONE', ( #98 ), #168, .T. ) ;
#91 = CARTESIAN_POINT ( 'NONE',  ( 3.928601368721975646E-14, -1.377967866477385581E-15, 11.25196152422707030 ) ) ;
#92 = APPLICATION_CONTEXT ( 'configuration controlled 3d designs of mechanical parts and assemblies' ) ;
#93 = CYLINDRICAL_SURFACE ( 'NONE', #196, 0.7499999999999988898 ) ;
#94 = AXIS2_PLACEMENT_3D ( 'NONE', #21, #58, #200 ) ;
#95 = EDGE_LOOP ( 'NONE', ( #199 ) ) ;
#96 = DIRECTION ( 'NONE',  ( 4.275831445896958607E-31, 1.000000000000000000, 1.224646799147353207E-16 ) ) ;
#97 = AXIS2_PLACEMENT_3D ( 'NONE', #67, #153, #187 ) ;
#98 = FACE_OUTER_BOUND ( 'NONE', #73, .T. ) ;
#99 = VERTEX_POINT ( 'NONE', #213 ) ;
#100 = CIRCLE ( 'NONE', #10, 0.7199999999999955325 ) ;
#101 = APPROVAL_ROLE ( '' ) ;
#102 =( NAMED_UNIT ( * ) PLANE_ANGLE_UNIT ( ) SI_UNIT ( $, .RADIAN. ) );
#103 = CC_DESIGN_PERSON_AND_ORGANIZATION_ASSIGNMENT ( #138, #207, ( #161 ) ) ;
#104 = CONICAL_SURFACE ( 'NONE', #145, 0.7499999999999977796, 0.5235987755982910441 ) ;
#105 = ORIENTED_EDGE ( 'NONE', *, *, #127, .F. ) ;
#106 = PRODUCT_DEFINITION_FORMATION_WITH_SPECIFIED_SOURCE ( 'ANY', '', #217, .NOT_KNOWN. ) ;
#107 = APPROVAL ( #139, 'UNSPECIFIED' ) ;
#108 = ORIENTED_EDGE ( 'NONE', *, *, #203, .T. ) ;
#109 = FACE_OUTER_BOUND ( 'NONE', #215, .T. ) ;
#110 = DIRECTION ( 'NONE',  ( -3.491481338843133355E-15, 1.224646799147353207E-16, -1.000000000000000000 ) ) ;
#111 = AXIS2_PLACEMENT_3D ( 'NONE', #23, #11, #80 ) ;
#112 = EDGE_LOOP ( 'NONE', ( #41 ) ) ;
#113 = ORIENTED_EDGE ( 'NONE', *, *, #190, .F. ) ;
#114 = DESIGN_CONTEXT ( 'detailed design', #92, 'design' ) ;
#115 =( GEOMETRIC_REPRESENTATION_CONTEXT ( 3 ) GLOBAL_UNCERTAINTY_ASSIGNED_CONTEXT ( ( #12 ) ) GLOBAL_UNIT_ASSIGNED_CONTEXT ( ( #74, #102, #191 ) ) REPRESENTATION_CONTEXT ( 'NONE', 'WORKASPACE' ) );
#116 = CARTESIAN_POINT ( 'NONE',  ( 1.510483419777934490E-15, 0.7199999999999935341, 0.4326196456998443463 ) ) ;
#117 = DIRECTION ( 'NONE',  ( 0.0000000000000000000, -1.000000000000000000, 0.0000000000000000000 ) ) ;
#118 = DATE_AND_TIME ( #84, #22 ) ;
#119 = PERSON_AND_ORGANIZATION ( #175, #77 ) ;
#120 = LOCAL_TIME ( 15, 47, 24.00000000000000000, #89 ) ;
#121 = APPLICATION_PROTOCOL_DEFINITION ( 'international standard', 'config_control_design', 1994, #79 ) ;
#122 = DIRECTION ( 'NONE',  ( 0.0000000000000000000, 1.000000000000000000, 0.0000000000000000000 ) ) ;
#123 = APPLICATION_PROTOCOL_DEFINITION ( 'international standard', 'config_control_design', 1994, #92 ) ;
#124 = DIRECTION ( 'NONE',  ( -4.275831445896958607E-31, -1.000000000000000000, -1.224646799147353207E-16 ) ) ;
#125 = DATE_TIME_ROLE ( 'classification_date' ) ;
#126 = CC_DESIGN_APPROVAL ( #172, ( #161 ) ) ;
#127 = EDGE_CURVE ( 'NONE', #99, #99, #182, .T. ) ;
#128 = DIRECTION ( 'NONE',  ( 0.0000000000000000000, 1.000000000000000000, 0.0000000000000000000 ) ) ;
#129 = FACE_OUTER_BOUND ( 'NONE', #9, .T. ) ;
#130 = LOCAL_TIME ( 15, 47, 24.00000000000000000, #15 ) ;
#131 = ADVANCED_FACE ( 'NONE', ( #81 ), #62, .F. ) ;
#132 = VERTEX_POINT ( 'NONE', #202 ) ;
#133 = CC_DESIGN_APPROVAL ( #107, ( #106 ) ) ;
#134 = FACE_OUTER_BOUND ( 'NONE', #165, .T. ) ;
#135 = DIRECTION ( 'NONE',  ( -3.491481338843133355E-15, 1.224646799147353207E-16, -1.000000000000000000 ) ) ;
#136 = DATE_TIME_ROLE ( 'creation_date' ) ;
#137 = LOCAL_TIME ( 15, 47, 24.00000000000000000, #176 ) ;
#138 = PERSON_AND_ORGANIZATION ( #175, #77 ) ;
#139 = APPROVAL_STATUS ( 'not_yet_approved' ) ;
#140 = APPROVAL_PERSON_ORGANIZATION ( #221, #42, #101 ) ;
#141 = FACE_OUTER_BOUND ( 'NONE', #112, .T. ) ;
#142 = EDGE_CURVE ( 'NONE', #24, #24, #82, .T. ) ;
#143 = EDGE_LOOP ( 'NONE', ( #59 ) ) ;
#144 = VERTEX_POINT ( 'NONE', #25 ) ;
#145 = AXIS2_PLACEMENT_3D ( 'NONE', #45, #39, #117 ) ;
#146 = EDGE_LOOP ( 'NONE', ( #61 ) ) ;
#147 = ADVANCED_FACE ( 'NONE', ( #134, #198 ), #93, .T. ) ;
#148 = ADVANCED_FACE ( 'NONE', ( #220, #109 ), #104, .T. ) ;
#149 = ORIENTED_EDGE ( 'NONE', *, *, #203, .F. ) ;
#150 = CARTESIAN_POINT ( 'NONE',  ( 1.047444401652940007E-13, -3.673940397442059178E-15, 30.00000000000000000 ) ) ;
#151 = AXIS2_PLACEMENT_3D ( 'NONE', #85, #156, #124 ) ;
#152 = DIRECTION ( 'NONE',  ( 4.275831445896958607E-31, 1.000000000000000000, 1.224646799147353207E-16 ) ) ;
#153 = DIRECTION ( 'NONE',  ( 0.0000000000000000000, 0.0000000000000000000, 1.000000000000000000 ) ) ;
#154 = DIRECTION ( 'NONE',  ( -3.491481338843133355E-15, 1.224646799147353207E-16, -1.000000000000000000 ) ) ;
#155 = PERSON_AND_ORGANIZATION ( #175, #77 ) ;
#156 = DIRECTION ( 'NONE',  ( 3.491481338843133355E-15, -1.224646799147353207E-16, 1.000000000000000000 ) ) ;
#157 = PERSON_AND_ORGANIZATION_ROLE ( 'creator' ) ;
#158 = ORIENTED_EDGE ( 'NONE', *, *, #16, .F. ) ;
#159 = CALENDAR_DATE ( 2021, 7, 10 ) ;
#160 = CC_DESIGN_DATE_AND_TIME_ASSIGNMENT ( #51, #125, ( #161 ) ) ;
#161 = SECURITY_CLASSIFICATION ( '', '', #49 ) ;
#162 = DIRECTION ( 'NONE',  ( -3.491481338843133355E-15, 1.224646799147353207E-16, -1.000000000000000000 ) ) ;
#163 = LOCAL_TIME ( 15, 47, 24.00000000000000000, #178 ) ;
#164 = CARTESIAN_POINT ( 'NONE',  ( 1.040461438975253740E-13, -3.649447461459112464E-15, 29.80000000000000071 ) ) ;
#165 = EDGE_LOOP ( 'NONE', ( #113 ) ) ;
#166 = CONICAL_SURFACE ( 'NONE', #111, 0.5500000000000001554, 0.7853981633974510546 ) ;
#167 = EDGE_LOOP ( 'NONE', ( #60 ) ) ;
#168 = PLANE ( 'NONE',  #94 ) ;
#169 = ADVANCED_FACE ( 'NONE', ( #129, #40 ), #166, .T. ) ;
#170 = DIRECTION ( 'NONE',  ( 3.491481338843133355E-15, -1.224646799147353207E-16, 1.000000000000000000 ) ) ;
#171 = PERSON_AND_ORGANIZATION_ROLE ( 'creator' ) ;
#172 = APPROVAL ( #33, 'UNSPECIFIED' ) ;
#173 = APPROVAL_STATUS ( 'not_yet_approved' ) ;
#174 = CLOSED_SHELL ( 'NONE', ( #78, #195, #90 ) ) ;
#175 = PERSON ( 'UNSPECIFIED', 'UNSPECIFIED', 'UNSPECIFIED', ('UNSPECIFIED'), ('UNSPECIFIED'), ('UNSPECIFIED') ) ;
#176 = COORDINATED_UNIVERSAL_TIME_OFFSET ( 1, 0, .AHEAD. ) ;
#177 = AXIS2_PLACEMENT_3D ( 'NONE', #222, #69, #206 ) ;
#178 = COORDINATED_UNIVERSAL_TIME_OFFSET ( 1, 0, .AHEAD. ) ;
#179 = CIRCLE ( 'NONE', #48, 0.7499999999999977796 ) ;
#180 = DIRECTION ( 'NONE',  ( -5.349805401075703414E-31, -1.000000000000000000, -1.505836350674325300E-16 ) ) ;
#181 = FACE_OUTER_BOUND ( 'NONE', #95, .T. ) ;
#182 = CIRCLE ( 'NONE', #36, 0.5500000000000001554 ) ;
#183 = ORIENTED_EDGE ( 'NONE', *, *, #3, .F. ) ;
#184 = CARTESIAN_POINT ( 'NONE',  ( 0.0000000000000000000, 0.0000000000000000000, 0.0000000000000000000 ) ) ;
#185 = DIRECTION ( 'NONE',  ( -3.491481338843133355E-15, 1.224646799147353207E-16, -1.000000000000000000 ) ) ;
#186 = PRODUCT_DEFINITION_SHAPE ( 'NONE', 'NONE',  #20 ) ;
#187 = DIRECTION ( 'NONE',  ( 1.000000000000000000, 0.0000000000000000000, 0.0000000000000000000 ) ) ;
#188 = CIRCLE ( 'NONE', #71, 0.7500000000000000000 ) ;
#189 = CALENDAR_DATE ( 2021, 7, 10 ) ;
#190 = EDGE_CURVE ( 'NONE', #132, #132, #179, .T. ) ;
#191 =( NAMED_UNIT ( * ) SI_UNIT ( $, .STERADIAN. ) SOLID_ANGLE_UNIT ( ) );
#192 = PERSON_AND_ORGANIZATION ( #175, #77 ) ;
#193 = FACE_OUTER_BOUND ( 'NONE', #143, .T. ) ;
#194 = PERSON_AND_ORGANIZATION ( #175, #77 ) ;
#195 = ADVANCED_FACE ( 'NONE', ( #181, #141 ), #8, .T. ) ;
#196 = AXIS2_PLACEMENT_3D ( 'NONE', #75, #135, #201 ) ;
#197 = DIRECTION ( 'NONE',  ( 0.0000000000000000000, 1.000000000000000000, 0.0000000000000000000 ) ) ;
#198 = FACE_OUTER_BOUND ( 'NONE', #72, .T. ) ;
#199 = ORIENTED_EDGE ( 'NONE', *, *, #142, .F. ) ;
#200 = DIRECTION ( 'NONE',  ( -4.275831445896958607E-31, -1.000000000000000000, -1.224646799147353207E-16 ) ) ;
#201 = DIRECTION ( 'NONE',  ( 4.275831445896959482E-31, 1.000000000000000000, 1.224646799147353207E-16 ) ) ;
#202 = CARTESIAN_POINT ( 'NONE',  ( 3.928601368721975646E-14, 0.7499999999999963363, 11.25196152422707030 ) ) ;
#203 = EDGE_CURVE ( 'NONE', #46, #46, #188, .T. ) ;
#204 = CIRCLE ( 'NONE', #177, 0.7199999999999955325 ) ;
#205 = DATE_AND_TIME ( #66, #137 ) ;
#206 = DIRECTION ( 'NONE',  ( 0.0000000000000000000, 1.000000000000000000, 0.0000000000000000000 ) ) ;
#207 = PERSON_AND_ORGANIZATION_ROLE ( 'classification_officer' ) ;
#208 = APPROVAL_DATE_TIME ( #1, #172 ) ;
#209 = CC_DESIGN_SECURITY_CLASSIFICATION ( #161, ( #106 ) ) ;
#210 = FACE_OUTER_BOUND ( 'NONE', #167, .T. ) ;
#211 = VERTEX_POINT ( 'NONE', #216 ) ;
#212 = CC_DESIGN_PERSON_AND_ORGANIZATION_ASSIGNMENT ( #119, #157, ( #106 ) ) ;
#213 = CARTESIAN_POINT ( 'NONE',  ( 1.047444401652940007E-13, 0.5499999999999964917, 30.00000000000000000 ) ) ;
#214 = AXIS2_PLACEMENT_3D ( 'NONE', #13, #110, #152 ) ;
#215 = EDGE_LOOP ( 'NONE', ( #53 ) ) ;
#216 = CARTESIAN_POINT ( 'NONE',  ( 3.910459099504309358E-14, 0.7199999999999940892, 11.19999999999999929 ) ) ;
#217 = PRODUCT ( '37031', '37031', '', ( #50 ) ) ;
#218 = APPROVAL_PERSON_ORGANIZATION ( #194, #172, #17 ) ;
#219 = MANIFOLD_SOLID_BREP ( 'Corps-Déplacer/Copier1[2]', #174 ) ;
#220 = FACE_BOUND ( 'NONE', #18, .T. ) ;
#221 = PERSON_AND_ORGANIZATION ( #175, #77 ) ;
#222 = CARTESIAN_POINT ( 'NONE',  ( 3.910459099504309358E-14, -1.371604415045035513E-15, 11.19999999999999929 ) ) ;
#223 = PERSON_AND_ORGANIZATION_ROLE ( 'design_supplier' ) ;
ENDSEC;
END-ISO-10303-21;
