ISO-10303-21;
HEADER;
FILE_DESCRIPTION (( 'STEP AP203' ),
    '1' );
FILE_NAME ('37030.step',
    '2021-10-07T13:47:23',
    ( '' ),
    ( '' ),
    'SwSTEP 2.0',
    'SolidWorks 2019',
    '' );
FILE_SCHEMA (( 'CONFIG_CONTROL_DESIGN' ));
ENDSEC;

DATA;
#1 = DIRECTION ( 'NONE',  ( 0.0000000000000000000, 1.000000000000000000, 0.0000000000000000000 ) ) ;
#2 = AXIS2_PLACEMENT_3D ( 'NONE', #103, #186, #68 ) ;
#3 = LOCAL_TIME ( 15, 47, 23.00000000000000000, #11 ) ;
#4 = DIRECTION ( 'NONE',  ( -4.275831445896958607E-31, -1.000000000000000000, -1.224646799147353207E-16 ) ) ;
#5 = CARTESIAN_POINT ( 'NONE',  ( 3.910459099504309989E-14, -2.070807140030606448E-31, 11.20000000000000107 ) ) ;
#6 = CC_DESIGN_PERSON_AND_ORGANIZATION_ASSIGNMENT ( #101, #10, ( #149 ) ) ;
#7 = DATE_TIME_ROLE ( 'classification_date' ) ;
#8 = ADVANCED_FACE ( 'NONE', ( #106 ), #119, .F. ) ;
#9 = AXIS2_PLACEMENT_3D ( 'NONE', #189, #52, #126 ) ;
#10 = PERSON_AND_ORGANIZATION_ROLE ( 'classification_officer' ) ;
#11 = COORDINATED_UNIVERSAL_TIME_OFFSET ( 1, 0, .AHEAD. ) ;
#12 = EDGE_LOOP ( 'NONE', ( #112 ) ) ;
#13 = UNCERTAINTY_MEASURE_WITH_UNIT (LENGTH_MEASURE( 1.000000000000000082E-05 ), #178, 'distance_accuracy_value', 'NONE');
#14 = APPROVAL_ROLE ( '' ) ;
#15 = DIRECTION ( 'NONE',  ( 0.0000000000000000000, -1.000000000000000000, 0.0000000000000000000 ) ) ;
#16 = PERSON_AND_ORGANIZATION ( #206, #91 ) ;
#17 = CARTESIAN_POINT ( 'NONE',  ( 1.047444401652940007E-13, -3.673940397442059178E-15, 30.00000000000000000 ) ) ;
#18 = APPROVAL_PERSON_ORGANIZATION ( #136, #96, #84 ) ;
#19 = EDGE_LOOP ( 'NONE', ( #192 ) ) ;
#20 = CC_DESIGN_PERSON_AND_ORGANIZATION_ASSIGNMENT ( #117, #165, ( #194 ) ) ;
#21 = DIRECTION ( 'NONE',  ( -3.491481338843133355E-15, 1.224646799147353207E-16, -1.000000000000000000 ) ) ;
#22 = AXIS2_PLACEMENT_3D ( 'NONE', #170, #159, #121 ) ;
#23 = APPROVAL_PERSON_ORGANIZATION ( #185, #37, #14 ) ;
#24 = CARTESIAN_POINT ( 'NONE',  ( 1.047444401652940007E-13, 0.5499999999999964917, 30.00000000000000000 ) ) ;
#25 = ORIENTED_EDGE ( 'NONE', *, *, #65, .T. ) ;
#26 = DIRECTION ( 'NONE',  ( 4.275831445896959482E-31, 1.000000000000000000, 1.224646799147353207E-16 ) ) ;
#27 = APPROVAL_PERSON_ORGANIZATION ( #16, #197, #48 ) ;
#28 = LOCAL_TIME ( 15, 47, 23.00000000000000000, #188 ) ;
#29 = CC_DESIGN_PERSON_AND_ORGANIZATION_ASSIGNMENT ( #113, #97, ( #53 ) ) ;
#30 = ADVANCED_FACE ( 'NONE', ( #216 ), #99, .T. ) ;
#31 = ORIENTED_EDGE ( 'NONE', *, *, #46, .F. ) ;
#32 = CIRCLE ( 'NONE', #80, 0.7149999999999957501 ) ;
#33 = DATE_AND_TIME ( #120, #76 ) ;
#34 = ORIENTED_EDGE ( 'NONE', *, *, #131, .F. ) ;
#35 = APPLICATION_PROTOCOL_DEFINITION ( 'international standard', 'config_control_design', 1994, #73 ) ;
#36 = CARTESIAN_POINT ( 'NONE',  ( 3.910459099504309989E-14, -2.070807140030606448E-31, 11.20000000000000107 ) ) ;
#37 = APPROVAL ( #171, 'UNSPECIFIED' ) ;
#38 = AXIS2_PLACEMENT_3D ( 'NONE', #5, #55, #4 ) ;
#39 = DIRECTION ( 'NONE',  ( -3.491481338843133355E-15, 1.224646799147353207E-16, -1.000000000000000000 ) ) ;
#40 = LOCAL_TIME ( 15, 47, 23.00000000000000000, #152 ) ;
#41 = CARTESIAN_POINT ( 'NONE',  ( 1.499993951585031813E-15, -5.261270541854472827E-17, 0.4296153426047064072 ) ) ;
#42 = DIRECTION ( 'NONE',  ( -3.491481338843133355E-15, 1.224646799147353207E-16, -1.000000000000000000 ) ) ;
#43 = CARTESIAN_POINT ( 'NONE',  ( 3.910459099504309989E-14, 0.7149999999999943068, 11.20000000000000107 ) ) ;
#44 = APPLICATION_PROTOCOL_DEFINITION ( 'international standard', 'config_control_design', 1994, #60 ) ;
#45 = CYLINDRICAL_SURFACE ( 'NONE', #143, 0.7149999999999946398 ) ;
#46 = EDGE_CURVE ( 'NONE', #58, #58, #153, .T. ) ;
#47 = EDGE_LOOP ( 'NONE', ( #161 ) ) ;
#48 = APPROVAL_ROLE ( '' ) ;
#49 = LOCAL_TIME ( 15, 47, 23.00000000000000000, #66 ) ;
#50 = FACE_OUTER_BOUND ( 'NONE', #215, .T. ) ;
#51 = DATE_TIME_ROLE ( 'creation_date' ) ;
#52 = DIRECTION ( 'NONE',  ( -3.491481338843133355E-15, 1.224646799147353207E-16, -1.000000000000000000 ) ) ;
#53 = PRODUCT_DEFINITION ( 'UNKNOWN', '', #100, #81 ) ;
#54 = DIRECTION ( 'NONE',  ( 3.491481338843133355E-15, -1.224646799147353207E-16, 1.000000000000000000 ) ) ;
#55 = DIRECTION ( 'NONE',  ( 3.491481338843133355E-15, -1.224646799147353207E-16, 1.000000000000000000 ) ) ;
#56 = AXIS2_PLACEMENT_3D ( 'NONE', #41, #59, #108 ) ;
#57 = CARTESIAN_POINT ( 'NONE',  ( 1.047444401652940007E-13, -3.673940397442059178E-15, 30.00000000000000000 ) ) ;
#58 = VERTEX_POINT ( 'NONE', #87 ) ;
#59 = DIRECTION ( 'NONE',  ( -3.491481338843133355E-15, 1.224646799147353207E-16, -1.000000000000000000 ) ) ;
#60 = APPLICATION_CONTEXT ( 'configuration controlled 3d designs of mechanical parts and assemblies' ) ;
#61 = CONICAL_SURFACE ( 'NONE', #114, 0.7499999999999977796, 0.5235987755982962621 ) ;
#62 = CC_DESIGN_DATE_AND_TIME_ASSIGNMENT ( #63, #7, ( #149 ) ) ;
#63 = DATE_AND_TIME ( #138, #49 ) ;
#64 = EDGE_LOOP ( 'NONE', ( #98 ) ) ;
#65 = EDGE_CURVE ( 'NONE', #90, #90, #132, .T. ) ;
#66 = COORDINATED_UNIVERSAL_TIME_OFFSET ( 1, 0, .AHEAD. ) ;
#67 = EDGE_LOOP ( 'NONE', ( #139 ) ) ;
#68 = DIRECTION ( 'NONE',  ( 0.0000000000000000000, 1.000000000000000000, 0.0000000000000000000 ) ) ;
#69 = PERSON_AND_ORGANIZATION_ROLE ( 'creator' ) ;
#70 = CIRCLE ( 'NONE', #56, 0.7149999999999935296 ) ;
#71 = EDGE_LOOP ( 'NONE', ( #104 ) ) ;
#72 = DIRECTION ( 'NONE',  ( 0.0000000000000000000, 1.000000000000000000, 0.0000000000000000000 ) ) ;
#73 = APPLICATION_CONTEXT ( 'configuration controlled 3d designs of mechanical parts and assemblies' ) ;
#74 = ADVANCED_BREP_SHAPE_REPRESENTATION ( '37030', ( #154, #155, #163 ), #202 ) ;
#75 = CARTESIAN_POINT ( 'NONE',  ( 3.931625080258253781E-14, 0.7499999999999963363, 11.26062177826491606 ) ) ;
#76 = LOCAL_TIME ( 15, 47, 23.00000000000000000, #150 ) ;
#77 = CARTESIAN_POINT ( 'NONE',  ( 1.499993951585032207E-15, 0.7149999999999935296, 0.4296153426047065182 ) ) ;
#78 = FACE_OUTER_BOUND ( 'NONE', #67, .T. ) ;
#79 = SHAPE_DEFINITION_REPRESENTATION ( #141, #74 ) ;
#80 = AXIS2_PLACEMENT_3D ( 'NONE', #135, #86, #220 ) ;
#81 = DESIGN_CONTEXT ( 'detailed design', #73, 'design' ) ;
#82 = DATE_AND_TIME ( #180, #28 ) ;
#83 = FACE_OUTER_BOUND ( 'NONE', #184, .T. ) ;
#84 = APPROVAL_ROLE ( '' ) ;
#85 = AXIS2_PLACEMENT_3D ( 'NONE', #179, #160, #1 ) ;
#86 = DIRECTION ( 'NONE',  ( -3.491481338843133355E-15, 1.224646799147353207E-16, -1.000000000000000000 ) ) ;
#87 = CARTESIAN_POINT ( 'NONE',  ( 1.040461438975253740E-13, 0.7499999999999963363, 29.80000000000000071 ) ) ;
#88 = CARTESIAN_POINT ( 'NONE',  ( 3.910459099504309989E-14, 0.7149999999999943068, 11.20000000000000107 ) ) ;
#89 = CARTESIAN_POINT ( 'NONE',  ( 0.0000000000000000000, 0.0000000000000000000, 0.0000000000000000000 ) ) ;
#90 = VERTEX_POINT ( 'NONE', #75 ) ;
#91 = ORGANIZATION ( 'UNSPECIFIED', 'UNSPECIFIED', '' ) ;
#92 = DIRECTION ( 'NONE',  ( 0.0000000000000000000, 0.0000000000000000000, 1.000000000000000000 ) ) ;
#93 = EDGE_CURVE ( 'NONE', #177, #177, #32, .T. ) ;
#94 = PERSON_AND_ORGANIZATION ( #206, #91 ) ;
#95 = AXIS2_PLACEMENT_3D ( 'NONE', #36, #190, #172 ) ;
#96 = APPROVAL ( #204, 'UNSPECIFIED' ) ;
#97 = PERSON_AND_ORGANIZATION_ROLE ( 'creator' ) ;
#98 = ORIENTED_EDGE ( 'NONE', *, *, #200, .F. ) ;
#99 = CONICAL_SURFACE ( 'NONE', #22, 0.7149999999999935296, 1.029744258676649649 ) ;
#100 = PRODUCT_DEFINITION_FORMATION_WITH_SPECIFIED_SOURCE ( 'ANY', '', #194, .NOT_KNOWN. ) ;
#101 = PERSON_AND_ORGANIZATION ( #206, #91 ) ;
#102 = SECURITY_CLASSIFICATION_LEVEL ( 'unclassified' ) ;
#103 = CARTESIAN_POINT ( 'NONE',  ( 3.931625080258253781E-14, -1.379028441716110626E-15, 11.26062177826491606 ) ) ;
#104 = ORIENTED_EDGE ( 'NONE', *, *, #131, .T. ) ;
#105 = ADVANCED_FACE ( 'NONE', ( #205, #50 ), #61, .T. ) ;
#106 = FACE_OUTER_BOUND ( 'NONE', #157, .T. ) ;
#107 = CARTESIAN_POINT ( 'NONE',  ( 0.0000000000000000000, 0.0000000000000000000, 0.0000000000000000000 ) ) ;
#108 = DIRECTION ( 'NONE',  ( 5.387216627656652879E-31, 1.000000000000000000, 1.516366674804915125E-16 ) ) ;
#109 = FACE_OUTER_BOUND ( 'NONE', #140, .T. ) ;
#110 = MECHANICAL_CONTEXT ( 'NONE', #60, 'mechanical' ) ;
#111 = CYLINDRICAL_SURFACE ( 'NONE', #173, 0.7499999999999988898 ) ;
#112 = ORIENTED_EDGE ( 'NONE', *, *, #200, .T. ) ;
#113 = PERSON_AND_ORGANIZATION ( #206, #91 ) ;
#114 = AXIS2_PLACEMENT_3D ( 'NONE', #218, #54, #15 ) ;
#115 = EDGE_LOOP ( 'NONE', ( #174 ) ) ;
#116 = CIRCLE ( 'NONE', #148, 0.5500000000000001554 ) ;
#117 = PERSON_AND_ORGANIZATION ( #206, #91 ) ;
#118 = CC_DESIGN_DATE_AND_TIME_ASSIGNMENT ( #82, #51, ( #53 ) ) ;
#119 = PLANE ( 'NONE',  #9 ) ;
#120 = CALENDAR_DATE ( 2021, 7, 10 ) ;
#121 = DIRECTION ( 'NONE',  ( -5.387216627656652879E-31, -1.000000000000000000, -1.516366674804915125E-16 ) ) ;
#122 = DIRECTION ( 'NONE',  ( 0.0000000000000000000, 1.000000000000000000, 0.0000000000000000000 ) ) ;
#123 = ADVANCED_FACE ( 'NONE', ( #83 ), #208, .T. ) ;
#124 = CC_DESIGN_APPROVAL ( #37, ( #100 ) ) ;
#125 = EDGE_LOOP ( 'NONE', ( #31 ) ) ;
#126 = DIRECTION ( 'NONE',  ( 4.275831445896958607E-31, 1.000000000000000000, 1.224646799147353207E-16 ) ) ;
#127 = DIRECTION ( 'NONE',  ( -3.491481338843133355E-15, 1.224646799147353207E-16, -1.000000000000000000 ) ) ;
#128 = DIRECTION ( 'NONE',  ( 4.275831445896958607E-31, 1.000000000000000000, 1.224646799147353207E-16 ) ) ;
#129 = FACE_OUTER_BOUND ( 'NONE', #19, .T. ) ;
#130 = CC_DESIGN_APPROVAL ( #197, ( #53 ) ) ;
#131 = EDGE_CURVE ( 'NONE', #145, #145, #116, .T. ) ;
#132 = CIRCLE ( 'NONE', #2, 0.7499999999999977796 ) ;
#133 = CC_DESIGN_PERSON_AND_ORGANIZATION_ASSIGNMENT ( #156, #167, ( #100 ) ) ;
#134 = CALENDAR_DATE ( 2021, 7, 10 ) ;
#135 = CARTESIAN_POINT ( 'NONE',  ( 3.910459099504309989E-14, -1.371604415045035710E-15, 11.20000000000000107 ) ) ;
#136 = PERSON_AND_ORGANIZATION ( #206, #91 ) ;
#137 = DIRECTION ( 'NONE',  ( -3.491481338843133355E-15, 1.224646799147353207E-16, -1.000000000000000000 ) ) ;
#138 = CALENDAR_DATE ( 2021, 7, 10 ) ;
#139 = ORIENTED_EDGE ( 'NONE', *, *, #93, .T. ) ;
#140 = EDGE_LOOP ( 'NONE', ( #168 ) ) ;
#141 = PRODUCT_DEFINITION_SHAPE ( 'NONE', 'NONE',  #53 ) ;
#142 =( NAMED_UNIT ( * ) PLANE_ANGLE_UNIT ( ) SI_UNIT ( $, .RADIAN. ) );
#143 = AXIS2_PLACEMENT_3D ( 'NONE', #146, #127, #128 ) ;
#144 = CC_DESIGN_APPROVAL ( #96, ( #149 ) ) ;
#145 = VERTEX_POINT ( 'NONE', #24 ) ;
#146 = CARTESIAN_POINT ( 'NONE',  ( 0.0000000000000000000, 0.0000000000000000000, 0.0000000000000000000 ) ) ;
#147 = CC_DESIGN_PERSON_AND_ORGANIZATION_ASSIGNMENT ( #94, #69, ( #100 ) ) ;
#148 = AXIS2_PLACEMENT_3D ( 'NONE', #17, #39, #72 ) ;
#149 = SECURITY_CLASSIFICATION ( '', '', #102 ) ;
#150 = COORDINATED_UNIVERSAL_TIME_OFFSET ( 1, 0, .AHEAD. ) ;
#151 = ADVANCED_FACE ( 'NONE', ( #78 ), #209, .F. ) ;
#152 = COORDINATED_UNIVERSAL_TIME_OFFSET ( 1, 0, .AHEAD. ) ;
#153 = CIRCLE ( 'NONE', #222, 0.7500000000000000000 ) ;
#154 = MANIFOLD_SOLID_BREP ( 'Corps-Déplacer/Copier1[1]', #191 ) ;
#155 = MANIFOLD_SOLID_BREP ( 'Corps-Déplacer/Copier1[2]', #195 ) ;
#156 = PERSON_AND_ORGANIZATION ( #206, #91 ) ;
#157 = EDGE_LOOP ( 'NONE', ( #34 ) ) ;
#158 = CONICAL_SURFACE ( 'NONE', #176, 0.5500000000000001554, 0.7853981633974510546 ) ;
#159 = DIRECTION ( 'NONE',  ( 3.491481338843133355E-15, -1.224646799147353207E-16, 1.000000000000000000 ) ) ;
#160 = DIRECTION ( 'NONE',  ( -3.491481338843133355E-15, 1.224646799147353207E-16, -1.000000000000000000 ) ) ;
#161 = ORIENTED_EDGE ( 'NONE', *, *, #212, .T. ) ;
#162 =( NAMED_UNIT ( * ) SI_UNIT ( $, .STERADIAN. ) SOLID_ANGLE_UNIT ( ) );
#163 = AXIS2_PLACEMENT_3D ( 'NONE', #89, #92, #164 ) ;
#164 = DIRECTION ( 'NONE',  ( 1.000000000000000000, 0.0000000000000000000, 0.0000000000000000000 ) ) ;
#165 = PERSON_AND_ORGANIZATION_ROLE ( 'design_owner' ) ;
#166 = APPROVAL_DATE_TIME ( #213, #197 ) ;
#167 = PERSON_AND_ORGANIZATION_ROLE ( 'design_supplier' ) ;
#168 = ORIENTED_EDGE ( 'NONE', *, *, #46, .T. ) ;
#169 = DATE_AND_TIME ( #134, #3 ) ;
#170 = CARTESIAN_POINT ( 'NONE',  ( 1.499993951585031813E-15, -5.261270541854472827E-17, 0.4296153426047064072 ) ) ;
#171 = APPROVAL_STATUS ( 'not_yet_approved' ) ;
#172 = DIRECTION ( 'NONE',  ( -4.275831445896958607E-31, -1.000000000000000000, -1.224646799147353207E-16 ) ) ;
#173 = AXIS2_PLACEMENT_3D ( 'NONE', #107, #21, #26 ) ;
#174 = ORIENTED_EDGE ( 'NONE', *, *, #93, .F. ) ;
#175 = ADVANCED_FACE ( 'NONE', ( #210, #196 ), #45, .T. ) ;
#176 = AXIS2_PLACEMENT_3D ( 'NONE', #57, #42, #193 ) ;
#177 = VERTEX_POINT ( 'NONE', #88 ) ;
#178 =( LENGTH_UNIT ( ) NAMED_UNIT ( * ) SI_UNIT ( .MILLI., .METRE. ) );
#179 = CARTESIAN_POINT ( 'NONE',  ( 3.910459099504309989E-14, -1.371604415045035710E-15, 11.20000000000000107 ) ) ;
#180 = CALENDAR_DATE ( 2021, 7, 10 ) ;
#181 = CIRCLE ( 'NONE', #85, 0.7149999999999957501 ) ;
#182 = CC_DESIGN_SECURITY_CLASSIFICATION ( #149, ( #100 ) ) ;
#183 = ADVANCED_FACE ( 'NONE', ( #211, #199 ), #158, .T. ) ;
#184 = EDGE_LOOP ( 'NONE', ( #203 ) ) ;
#185 = PERSON_AND_ORGANIZATION ( #206, #91 ) ;
#186 = DIRECTION ( 'NONE',  ( -3.491481338843133355E-15, 1.224646799147353207E-16, -1.000000000000000000 ) ) ;
#187 = PRODUCT_RELATED_PRODUCT_CATEGORY ( 'detail', '', ( #194 ) ) ;
#188 = COORDINATED_UNIVERSAL_TIME_OFFSET ( 1, 0, .AHEAD. ) ;
#189 = CARTESIAN_POINT ( 'NONE',  ( 1.047444401652940007E-13, 4.124339402320053683E-33, 30.00000000000000000 ) ) ;
#190 = DIRECTION ( 'NONE',  ( 3.491481338843133355E-15, -1.224646799147353207E-16, 1.000000000000000000 ) ) ;
#191 = CLOSED_SHELL ( 'NONE', ( #151, #105, #219, #183, #8 ) ) ;
#192 = ORIENTED_EDGE ( 'NONE', *, *, #65, .F. ) ;
#193 = DIRECTION ( 'NONE',  ( 0.0000000000000000000, 1.000000000000000000, 0.0000000000000000000 ) ) ;
#194 = PRODUCT ( '37030', '37030', '', ( #110 ) ) ;
#195 = CLOSED_SHELL ( 'NONE', ( #30, #175, #123 ) ) ;
#196 = FACE_OUTER_BOUND ( 'NONE', #47, .T. ) ;
#197 = APPROVAL ( #214, 'UNSPECIFIED' ) ;
#198 = VERTEX_POINT ( 'NONE', #77 ) ;
#199 = FACE_BOUND ( 'NONE', #71, .T. ) ;
#200 = EDGE_CURVE ( 'NONE', #198, #198, #70, .T. ) ;
#201 = CALENDAR_DATE ( 2021, 7, 10 ) ;
#202 =( GEOMETRIC_REPRESENTATION_CONTEXT ( 3 ) GLOBAL_UNCERTAINTY_ASSIGNED_CONTEXT ( ( #13 ) ) GLOBAL_UNIT_ASSIGNED_CONTEXT ( ( #178, #142, #162 ) ) REPRESENTATION_CONTEXT ( 'NONE', 'WORKASPACE' ) );
#203 = ORIENTED_EDGE ( 'NONE', *, *, #212, .F. ) ;
#204 = APPROVAL_STATUS ( 'not_yet_approved' ) ;
#205 = FACE_BOUND ( 'NONE', #115, .T. ) ;
#206 = PERSON ( 'UNSPECIFIED', 'UNSPECIFIED', 'UNSPECIFIED', ('UNSPECIFIED'), ('UNSPECIFIED'), ('UNSPECIFIED') ) ;
#207 = APPROVAL_DATE_TIME ( #169, #96 ) ;
#208 = PLANE ( 'NONE',  #95 ) ;
#209 = PLANE ( 'NONE',  #38 ) ;
#210 = FACE_OUTER_BOUND ( 'NONE', #64, .T. ) ;
#211 = FACE_OUTER_BOUND ( 'NONE', #125, .T. ) ;
#212 = EDGE_CURVE ( 'NONE', #223, #223, #181, .T. ) ;
#213 = DATE_AND_TIME ( #201, #40 ) ;
#214 = APPROVAL_STATUS ( 'not_yet_approved' ) ;
#215 = EDGE_LOOP ( 'NONE', ( #25 ) ) ;
#216 = FACE_OUTER_BOUND ( 'NONE', #12, .T. ) ;
#217 = APPROVAL_DATE_TIME ( #33, #37 ) ;
#218 = CARTESIAN_POINT ( 'NONE',  ( 3.931625080258253781E-14, -1.379028441716110626E-15, 11.26062177826491606 ) ) ;
#219 = ADVANCED_FACE ( 'NONE', ( #129, #109 ), #111, .T. ) ;
#220 = DIRECTION ( 'NONE',  ( 0.0000000000000000000, 1.000000000000000000, 0.0000000000000000000 ) ) ;
#221 = CARTESIAN_POINT ( 'NONE',  ( 1.040461438975253740E-13, -3.649447461459112464E-15, 29.80000000000000071 ) ) ;
#222 = AXIS2_PLACEMENT_3D ( 'NONE', #221, #137, #122 ) ;
#223 = VERTEX_POINT ( 'NONE', #43 ) ;
ENDSEC;
END-ISO-10303-21;
