ISO-10303-21;
HEADER;
FILE_DESCRIPTION (( 'STEP AP203' ),
    '1' );
FILE_NAME ('37029.step',
    '2021-10-07T13:47:22',
    ( '' ),
    ( '' ),
    'SwSTEP 2.0',
    'SolidWorks 2019',
    '' );
FILE_SCHEMA (( 'CONFIG_CONTROL_DESIGN' ));
ENDSEC;

DATA;
#1 = DIRECTION ( 'NONE',  ( -4.275831445896958607E-31, -1.000000000000000000, -1.224646799147353207E-16 ) ) ;
#2 = EDGE_LOOP ( 'NONE', ( #111 ) ) ;
#3 = EDGE_CURVE ( 'NONE', #131, #131, #113, .T. ) ;
#4 = APPROVAL_DATE_TIME ( #203, #91 ) ;
#5 = CC_DESIGN_PERSON_AND_ORGANIZATION_ASSIGNMENT ( #204, #142, ( #70 ) ) ;
#6 = FACE_OUTER_BOUND ( 'NONE', #135, .T. ) ;
#7 = DIRECTION ( 'NONE',  ( 3.491481338843133355E-15, -1.224646799147353207E-16, 1.000000000000000000 ) ) ;
#8 = FACE_OUTER_BOUND ( 'NONE', #74, .T. ) ;
#9 = EDGE_LOOP ( 'NONE', ( #110 ) ) ;
#10 = DIRECTION ( 'NONE',  ( 0.0000000000000000000, 1.000000000000000000, 0.0000000000000000000 ) ) ;
#11 = EDGE_LOOP ( 'NONE', ( #214 ) ) ;
#12 = AXIS2_PLACEMENT_3D ( 'NONE', #35, #220, #157 ) ;
#13 = DIRECTION ( 'NONE',  ( 3.491481338843133355E-15, -1.224646799147353207E-16, 1.000000000000000000 ) ) ;
#14 = FACE_OUTER_BOUND ( 'NONE', #59, .T. ) ;
#15 = APPROVAL_DATE_TIME ( #18, #20 ) ;
#16 = CC_DESIGN_APPROVAL ( #20, ( #55 ) ) ;
#17 = PERSON_AND_ORGANIZATION_ROLE ( 'classification_officer' ) ;
#18 = DATE_AND_TIME ( #171, #83 ) ;
#19 = COORDINATED_UNIVERSAL_TIME_OFFSET ( 1, 0, .AHEAD. ) ;
#20 = APPROVAL ( #62, 'UNSPECIFIED' ) ;
#21 = CC_DESIGN_SECURITY_CLASSIFICATION ( #184, ( #24 ) ) ;
#22 = CC_DESIGN_APPROVAL ( #91, ( #184 ) ) ;
#23 = ORIENTED_EDGE ( 'NONE', *, *, #103, .F. ) ;
#24 = PRODUCT_DEFINITION_FORMATION_WITH_SPECIFIED_SOURCE ( 'ANY', '', #70, .NOT_KNOWN. ) ;
#25 = DIRECTION ( 'NONE',  ( -3.491481338843133355E-15, 1.224646799147353207E-16, -1.000000000000000000 ) ) ;
#26 = VERTEX_POINT ( 'NONE', #168 ) ;
#27 = AXIS2_PLACEMENT_3D ( 'NONE', #149, #40, #137 ) ;
#28 = APPROVAL_PERSON_ORGANIZATION ( #156, #91, #66 ) ;
#29 = DIRECTION ( 'NONE',  ( -3.491481338843133355E-15, 1.224646799147353207E-16, -1.000000000000000000 ) ) ;
#30 = CARTESIAN_POINT ( 'NONE',  ( 3.910459099504309358E-14, -1.371604415045035513E-15, 11.19999999999999929 ) ) ;
#31 = FACE_BOUND ( 'NONE', #49, .T. ) ;
#32 = CARTESIAN_POINT ( 'NONE',  ( 1.040461438975253740E-13, 0.7499999999999963363, 29.80000000000000071 ) ) ;
#33 = CLOSED_SHELL ( 'NONE', ( #174, #105, #221, #189, #209 ) ) ;
#34 = APPROVAL_ROLE ( '' ) ;
#35 = CARTESIAN_POINT ( 'NONE',  ( 0.0000000000000000000, 0.0000000000000000000, 0.0000000000000000000 ) ) ;
#36 = PLANE ( 'NONE',  #75 ) ;
#37 = FACE_OUTER_BOUND ( 'NONE', #2, .T. ) ;
#38 = APPROVAL_PERSON_ORGANIZATION ( #69, #102, #45 ) ;
#39 = DIRECTION ( 'NONE',  ( -3.491481338843133355E-15, 1.224646799147353207E-16, -1.000000000000000000 ) ) ;
#40 = DIRECTION ( 'NONE',  ( 3.491481338843133355E-15, -1.224646799147353207E-16, 1.000000000000000000 ) ) ;
#41 = DIRECTION ( 'NONE',  ( 4.275831445896958607E-31, 1.000000000000000000, 1.224646799147353207E-16 ) ) ;
#42 = CARTESIAN_POINT ( 'NONE',  ( 3.910459099504309358E-14, -1.371604415045035513E-15, 11.19999999999999929 ) ) ;
#43 = AXIS2_PLACEMENT_3D ( 'NONE', #177, #25, #160 ) ;
#44 = COORDINATED_UNIVERSAL_TIME_OFFSET ( 1, 0, .AHEAD. ) ;
#45 = APPROVAL_ROLE ( '' ) ;
#46 = UNCERTAINTY_MEASURE_WITH_UNIT (LENGTH_MEASURE( 1.000000000000000082E-05 ), #106, 'distance_accuracy_value', 'NONE');
#47 = SECURITY_CLASSIFICATION_LEVEL ( 'unclassified' ) ;
#48 = CONICAL_SURFACE ( 'NONE', #143, 0.5500000000000001554, 0.7853981633974510546 ) ;
#49 = EDGE_LOOP ( 'NONE', ( #71 ) ) ;
#50 =( GEOMETRIC_REPRESENTATION_CONTEXT ( 3 ) GLOBAL_UNCERTAINTY_ASSIGNED_CONTEXT ( ( #46 ) ) GLOBAL_UNIT_ASSIGNED_CONTEXT ( ( #106, #172, #201 ) ) REPRESENTATION_CONTEXT ( 'NONE', 'WORKASPACE' ) );
#51 = DESIGN_CONTEXT ( 'detailed design', #98, 'design' ) ;
#52 = DIRECTION ( 'NONE',  ( -5.425154772921840452E-31, -1.000000000000000000, -1.527045313359879281E-16 ) ) ;
#53 = DIRECTION ( 'NONE',  ( 0.0000000000000000000, 1.000000000000000000, 0.0000000000000000000 ) ) ;
#54 = EDGE_LOOP ( 'NONE', ( #115 ) ) ;
#55 = PRODUCT_DEFINITION ( 'UNKNOWN', '', #24, #51 ) ;
#56 = DIRECTION ( 'NONE',  ( 0.0000000000000000000, 1.000000000000000000, 0.0000000000000000000 ) ) ;
#57 = ADVANCED_FACE ( 'NONE', ( #6 ), #36, .T. ) ;
#58 = VERTEX_POINT ( 'NONE', #212 ) ;
#59 = EDGE_LOOP ( 'NONE', ( #132 ) ) ;
#60 = CARTESIAN_POINT ( 'NONE',  ( 0.0000000000000000000, 0.0000000000000000000, 0.0000000000000000000 ) ) ;
#61 = APPLICATION_CONTEXT ( 'configuration controlled 3d designs of mechanical parts and assemblies' ) ;
#62 = APPROVAL_STATUS ( 'not_yet_approved' ) ;
#63 = CIRCLE ( 'NONE', #122, 0.7499999999999977796 ) ;
#64 = PERSON_AND_ORGANIZATION_ROLE ( 'creator' ) ;
#65 = MANIFOLD_SOLID_BREP ( 'Corps-Déplacer/Copier1[1]', #33 ) ;
#66 = APPROVAL_ROLE ( '' ) ;
#67 = PERSON_AND_ORGANIZATION ( #86, #188 ) ;
#68 = ORIENTED_EDGE ( 'NONE', *, *, #103, .T. ) ;
#69 = PERSON_AND_ORGANIZATION ( #86, #188 ) ;
#70 = PRODUCT ( '37029', '37029', '', ( #100 ) ) ;
#71 = ORIENTED_EDGE ( 'NONE', *, *, #166, .F. ) ;
#72 = CLOSED_SHELL ( 'NONE', ( #129, #76, #57 ) ) ;
#73 = FACE_OUTER_BOUND ( 'NONE', #9, .T. ) ;
#74 = EDGE_LOOP ( 'NONE', ( #169 ) ) ;
#75 = AXIS2_PLACEMENT_3D ( 'NONE', #108, #159, #1 ) ;
#76 = ADVANCED_FACE ( 'NONE', ( #73, #37 ), #116, .T. ) ;
#77 = DIRECTION ( 'NONE',  ( -4.275831445896958607E-31, -1.000000000000000000, -1.224646799147353207E-16 ) ) ;
#78 = FACE_OUTER_BOUND ( 'NONE', #54, .T. ) ;
#79 = DIRECTION ( 'NONE',  ( -3.491481338843133355E-15, 1.224646799147353207E-16, -1.000000000000000000 ) ) ;
#80 = CC_DESIGN_PERSON_AND_ORGANIZATION_ASSIGNMENT ( #173, #200, ( #24 ) ) ;
#81 = CALENDAR_DATE ( 2021, 7, 10 ) ;
#82 = COORDINATED_UNIVERSAL_TIME_OFFSET ( 1, 0, .AHEAD. ) ;
#83 = LOCAL_TIME ( 15, 47, 22.00000000000000000, #44 ) ;
#84 = CALENDAR_DATE ( 2021, 7, 10 ) ;
#85 = CC_DESIGN_PERSON_AND_ORGANIZATION_ASSIGNMENT ( #140, #138, ( #24 ) ) ;
#86 = PERSON ( 'UNSPECIFIED', 'UNSPECIFIED', 'UNSPECIFIED', ('UNSPECIFIED'), ('UNSPECIFIED'), ('UNSPECIFIED') ) ;
#87 = DATE_AND_TIME ( #84, #119 ) ;
#88 = AXIS2_PLACEMENT_3D ( 'NONE', #112, #7, #77 ) ;
#89 = CONICAL_SURFACE ( 'NONE', #27, 0.7499999999999977796, 0.5235987755982879355 ) ;
#90 = AXIS2_PLACEMENT_3D ( 'NONE', #199, #13, #52 ) ;
#91 = APPROVAL ( #223, 'UNSPECIFIED' ) ;
#92 = EDGE_CURVE ( 'NONE', #93, #93, #107, .T. ) ;
#93 = VERTEX_POINT ( 'NONE', #99 ) ;
#94 = CARTESIAN_POINT ( 'NONE',  ( 0.0000000000000000000, 0.0000000000000000000, 0.0000000000000000000 ) ) ;
#95 = ORIENTED_EDGE ( 'NONE', *, *, #92, .F. ) ;
#96 = FACE_OUTER_BOUND ( 'NONE', #175, .T. ) ;
#97 = CARTESIAN_POINT ( 'NONE',  ( 1.047444401652940007E-13, -3.673940397442059178E-15, 30.00000000000000000 ) ) ;
#98 = APPLICATION_CONTEXT ( 'configuration controlled 3d designs of mechanical parts and assemblies' ) ;
#99 = CARTESIAN_POINT ( 'NONE',  ( 3.910459099504309358E-14, 0.7099999999999936362, 11.19999999999999929 ) ) ;
#100 = MECHANICAL_CONTEXT ( 'NONE', #61, 'mechanical' ) ;
#101 = AXIS2_PLACEMENT_3D ( 'NONE', #30, #29, #53 ) ;
#102 = APPROVAL ( #222, 'UNSPECIFIED' ) ;
#103 = EDGE_CURVE ( 'NONE', #147, #147, #139, .T. ) ;
#104 = DATE_TIME_ROLE ( 'creation_date' ) ;
#105 = ADVANCED_FACE ( 'NONE', ( #31, #14 ), #89, .T. ) ;
#106 =( LENGTH_UNIT ( ) NAMED_UNIT ( * ) SI_UNIT ( .MILLI., .METRE. ) );
#107 = CIRCLE ( 'NONE', #101, 0.7099999999999950795 ) ;
#108 = CARTESIAN_POINT ( 'NONE',  ( 3.910459099504309358E-14, 5.324147228449535527E-33, 11.19999999999999929 ) ) ;
#109 = CIRCLE ( 'NONE', #134, 0.7099999999999950795 ) ;
#110 = ORIENTED_EDGE ( 'NONE', *, *, #181, .F. ) ;
#111 = ORIENTED_EDGE ( 'NONE', *, *, #92, .T. ) ;
#112 = CARTESIAN_POINT ( 'NONE',  ( 3.910459099504309358E-14, 5.324147228449535527E-33, 11.19999999999999929 ) ) ;
#113 = CIRCLE ( 'NONE', #43, 0.7500000000000000000 ) ;
#114 = CARTESIAN_POINT ( 'NONE',  ( 1.489504483392129727E-15, 0.7099999999999935252, 0.4266110395095686902 ) ) ;
#115 = ORIENTED_EDGE ( 'NONE', *, *, #3, .T. ) ;
#116 = CYLINDRICAL_SURFACE ( 'NONE', #125, 0.7099999999999943023 ) ;
#117 = DIRECTION ( 'NONE',  ( -3.491481338843133355E-15, 1.224646799147353207E-16, -1.000000000000000000 ) ) ;
#118 = DIRECTION ( 'NONE',  ( 4.275831445896959482E-31, 1.000000000000000000, 1.224646799147353207E-16 ) ) ;
#119 = LOCAL_TIME ( 15, 47, 22.00000000000000000, #19 ) ;
#120 = LOCAL_TIME ( 15, 47, 22.00000000000000000, #187 ) ;
#121 = PERSON_AND_ORGANIZATION ( #86, #188 ) ;
#122 = AXIS2_PLACEMENT_3D ( 'NONE', #216, #183, #56 ) ;
#123 = PRODUCT_DEFINITION_SHAPE ( 'NONE', 'NONE',  #55 ) ;
#124 = COORDINATED_UNIVERSAL_TIME_OFFSET ( 1, 0, .AHEAD. ) ;
#125 = AXIS2_PLACEMENT_3D ( 'NONE', #94, #79, #180 ) ;
#126 = CC_DESIGN_APPROVAL ( #102, ( #24 ) ) ;
#127 = EDGE_LOOP ( 'NONE', ( #210 ) ) ;
#128 = EDGE_CURVE ( 'NONE', #26, #26, #63, .T. ) ;
#129 = ADVANCED_FACE ( 'NONE', ( #179 ), #207, .T. ) ;
#130 = PLANE ( 'NONE',  #178 ) ;
#131 = VERTEX_POINT ( 'NONE', #32 ) ;
#132 = ORIENTED_EDGE ( 'NONE', *, *, #128, .T. ) ;
#133 = DIRECTION ( 'NONE',  ( 0.0000000000000000000, 1.000000000000000000, 0.0000000000000000000 ) ) ;
#134 = AXIS2_PLACEMENT_3D ( 'NONE', #42, #39, #133 ) ;
#135 = EDGE_LOOP ( 'NONE', ( #95 ) ) ;
#136 = FACE_OUTER_BOUND ( 'NONE', #11, .T. ) ;
#137 = DIRECTION ( 'NONE',  ( 0.0000000000000000000, -1.000000000000000000, 0.0000000000000000000 ) ) ;
#138 = PERSON_AND_ORGANIZATION_ROLE ( 'creator' ) ;
#139 = CIRCLE ( 'NONE', #161, 0.5500000000000001554 ) ;
#140 = PERSON_AND_ORGANIZATION ( #86, #188 ) ;
#141 = CALENDAR_DATE ( 2021, 7, 10 ) ;
#142 = PERSON_AND_ORGANIZATION_ROLE ( 'design_owner' ) ;
#143 = AXIS2_PLACEMENT_3D ( 'NONE', #182, #196, #213 ) ;
#144 = APPROVAL_DATE_TIME ( #219, #102 ) ;
#145 = LOCAL_TIME ( 15, 47, 22.00000000000000000, #82 ) ;
#146 = PRODUCT_RELATED_PRODUCT_CATEGORY ( 'detail', '', ( #70 ) ) ;
#147 = VERTEX_POINT ( 'NONE', #217 ) ;
#148 = DIRECTION ( 'NONE',  ( 5.425154772921840452E-31, 1.000000000000000000, 1.527045313359879281E-16 ) ) ;
#149 = CARTESIAN_POINT ( 'NONE',  ( 3.934648791794531286E-14, -1.380089016954835473E-15, 11.26928203230276182 ) ) ;
#150 = DIRECTION ( 'NONE',  ( -3.491481338843133355E-15, 1.224646799147353207E-16, -1.000000000000000000 ) ) ;
#151 = CC_DESIGN_DATE_AND_TIME_ASSIGNMENT ( #185, #104, ( #55 ) ) ;
#152 = FACE_OUTER_BOUND ( 'NONE', #165, .T. ) ;
#153 = PERSON_AND_ORGANIZATION ( #86, #188 ) ;
#154 = CALENDAR_DATE ( 2021, 7, 10 ) ;
#155 = AXIS2_PLACEMENT_3D ( 'NONE', #167, #163, #148 ) ;
#156 = PERSON_AND_ORGANIZATION ( #86, #188 ) ;
#157 = DIRECTION ( 'NONE',  ( 1.000000000000000000, 0.0000000000000000000, 0.0000000000000000000 ) ) ;
#158 = DATE_TIME_ROLE ( 'classification_date' ) ;
#159 = DIRECTION ( 'NONE',  ( 3.491481338843133355E-15, -1.224646799147353207E-16, 1.000000000000000000 ) ) ;
#160 = DIRECTION ( 'NONE',  ( 0.0000000000000000000, 1.000000000000000000, 0.0000000000000000000 ) ) ;
#161 = AXIS2_PLACEMENT_3D ( 'NONE', #97, #164, #10 ) ;
#162 = VERTEX_POINT ( 'NONE', #114 ) ;
#163 = DIRECTION ( 'NONE',  ( -3.491481338843133355E-15, 1.224646799147353207E-16, -1.000000000000000000 ) ) ;
#164 = DIRECTION ( 'NONE',  ( -3.491481338843133355E-15, 1.224646799147353207E-16, -1.000000000000000000 ) ) ;
#165 = EDGE_LOOP ( 'NONE', ( #23 ) ) ;
#166 = EDGE_CURVE ( 'NONE', #58, #58, #109, .T. ) ;
#167 = CARTESIAN_POINT ( 'NONE',  ( 1.489504483392129529E-15, -5.224478440163182169E-17, 0.4266110395095685792 ) ) ;
#168 = CARTESIAN_POINT ( 'NONE',  ( 3.934648791794531286E-14, 0.7499999999999963363, 11.26928203230276182 ) ) ;
#169 = ORIENTED_EDGE ( 'NONE', *, *, #3, .F. ) ;
#170 = CC_DESIGN_PERSON_AND_ORGANIZATION_ASSIGNMENT ( #121, #17, ( #184 ) ) ;
#171 = CALENDAR_DATE ( 2021, 7, 10 ) ;
#172 =( NAMED_UNIT ( * ) PLANE_ANGLE_UNIT ( ) SI_UNIT ( $, .RADIAN. ) );
#173 = PERSON_AND_ORGANIZATION ( #86, #188 ) ;
#174 = ADVANCED_FACE ( 'NONE', ( #96 ), #198, .F. ) ;
#175 = EDGE_LOOP ( 'NONE', ( #191 ) ) ;
#176 = ADVANCED_BREP_SHAPE_REPRESENTATION ( '37029', ( #65, #215, #12 ), #50 ) ;
#177 = CARTESIAN_POINT ( 'NONE',  ( 1.040461438975253740E-13, -3.649447461459112464E-15, 29.80000000000000071 ) ) ;
#178 = AXIS2_PLACEMENT_3D ( 'NONE', #218, #117, #41 ) ;
#179 = FACE_OUTER_BOUND ( 'NONE', #127, .T. ) ;
#180 = DIRECTION ( 'NONE',  ( 4.275831445896958607E-31, 1.000000000000000000, 1.224646799147352961E-16 ) ) ;
#181 = EDGE_CURVE ( 'NONE', #162, #162, #205, .T. ) ;
#182 = CARTESIAN_POINT ( 'NONE',  ( 1.047444401652940007E-13, -3.673940397442059178E-15, 30.00000000000000000 ) ) ;
#183 = DIRECTION ( 'NONE',  ( -3.491481338843133355E-15, 1.224646799147353207E-16, -1.000000000000000000 ) ) ;
#184 = SECURITY_CLASSIFICATION ( '', '', #47 ) ;
#185 = DATE_AND_TIME ( #154, #120 ) ;
#186 = APPLICATION_PROTOCOL_DEFINITION ( 'international standard', 'config_control_design', 1994, #98 ) ;
#187 = COORDINATED_UNIVERSAL_TIME_OFFSET ( 1, 0, .AHEAD. ) ;
#188 = ORGANIZATION ( 'UNSPECIFIED', 'UNSPECIFIED', '' ) ;
#189 = ADVANCED_FACE ( 'NONE', ( #8, #197 ), #48, .T. ) ;
#190 = APPLICATION_PROTOCOL_DEFINITION ( 'international standard', 'config_control_design', 1994, #61 ) ;
#191 = ORIENTED_EDGE ( 'NONE', *, *, #166, .T. ) ;
#192 = LOCAL_TIME ( 15, 47, 22.00000000000000000, #124 ) ;
#193 = CC_DESIGN_PERSON_AND_ORGANIZATION_ASSIGNMENT ( #153, #64, ( #55 ) ) ;
#194 = AXIS2_PLACEMENT_3D ( 'NONE', #60, #150, #118 ) ;
#195 = CYLINDRICAL_SURFACE ( 'NONE', #194, 0.7499999999999988898 ) ;
#196 = DIRECTION ( 'NONE',  ( -3.491481338843133355E-15, 1.224646799147353207E-16, -1.000000000000000000 ) ) ;
#197 = FACE_BOUND ( 'NONE', #206, .T. ) ;
#198 = PLANE ( 'NONE',  #88 ) ;
#199 = CARTESIAN_POINT ( 'NONE',  ( 1.489504483392129529E-15, -5.224478440163182169E-17, 0.4266110395095685792 ) ) ;
#200 = PERSON_AND_ORGANIZATION_ROLE ( 'design_supplier' ) ;
#201 =( NAMED_UNIT ( * ) SI_UNIT ( $, .STERADIAN. ) SOLID_ANGLE_UNIT ( ) );
#202 = CC_DESIGN_DATE_AND_TIME_ASSIGNMENT ( #87, #158, ( #184 ) ) ;
#203 = DATE_AND_TIME ( #141, #192 ) ;
#204 = PERSON_AND_ORGANIZATION ( #86, #188 ) ;
#205 = CIRCLE ( 'NONE', #155, 0.7099999999999935252 ) ;
#206 = EDGE_LOOP ( 'NONE', ( #68 ) ) ;
#207 = CONICAL_SURFACE ( 'NONE', #90, 0.7099999999999935252, 1.029744258676649649 ) ;
#208 = SHAPE_DEFINITION_REPRESENTATION ( #123, #176 ) ;
#209 = ADVANCED_FACE ( 'NONE', ( #152 ), #130, .F. ) ;
#210 = ORIENTED_EDGE ( 'NONE', *, *, #181, .T. ) ;
#211 = APPROVAL_PERSON_ORGANIZATION ( #67, #20, #34 ) ;
#212 = CARTESIAN_POINT ( 'NONE',  ( 3.910459099504309358E-14, 0.7099999999999936362, 11.19999999999999929 ) ) ;
#213 = DIRECTION ( 'NONE',  ( 0.0000000000000000000, 1.000000000000000000, 0.0000000000000000000 ) ) ;
#214 = ORIENTED_EDGE ( 'NONE', *, *, #128, .F. ) ;
#215 = MANIFOLD_SOLID_BREP ( 'Corps-Déplacer/Copier1[2]', #72 ) ;
#216 = CARTESIAN_POINT ( 'NONE',  ( 3.934648791794531286E-14, -1.380089016954835473E-15, 11.26928203230276182 ) ) ;
#217 = CARTESIAN_POINT ( 'NONE',  ( 1.047444401652940007E-13, 0.5499999999999964917, 30.00000000000000000 ) ) ;
#218 = CARTESIAN_POINT ( 'NONE',  ( 1.047444401652940007E-13, 4.124339402320053683E-33, 30.00000000000000000 ) ) ;
#219 = DATE_AND_TIME ( #81, #145 ) ;
#220 = DIRECTION ( 'NONE',  ( 0.0000000000000000000, 0.0000000000000000000, 1.000000000000000000 ) ) ;
#221 = ADVANCED_FACE ( 'NONE', ( #136, #78 ), #195, .T. ) ;
#222 = APPROVAL_STATUS ( 'not_yet_approved' ) ;
#223 = APPROVAL_STATUS ( 'not_yet_approved' ) ;
ENDSEC;
END-ISO-10303-21;
