ISO-10303-21;
HEADER;
FILE_DESCRIPTION (( 'STEP AP203' ),
    '1' );
FILE_NAME ('37028.step',
    '2021-10-07T13:47:22',
    ( '' ),
    ( '' ),
    'SwSTEP 2.0',
    'SolidWorks 2019',
    '' );
FILE_SCHEMA (( 'CONFIG_CONTROL_DESIGN' ));
ENDSEC;

DATA;
#1 = CONICAL_SURFACE ( 'NONE', #97, 0.6949999999999986189, 1.029744258676649649 ) ;
#2 = VERTEX_POINT ( 'NONE', #85 ) ;
#3 = CARTESIAN_POINT ( 'NONE',  ( 1.040461438975253740E-13, 0.7499999999999963363, 29.80000000000000071 ) ) ;
#4 = FACE_OUTER_BOUND ( 'NONE', #209, .T. ) ;
#5 = ADVANCED_FACE ( 'NONE', ( #188, #98 ), #99, .T. ) ;
#6 = APPROVAL_PERSON_ORGANIZATION ( #201, #80, #149 ) ;
#7 = CARTESIAN_POINT ( 'NONE',  ( 3.910459099504309989E-14, -2.072306899813267988E-31, 11.20000000000000107 ) ) ;
#8 = DIRECTION ( 'NONE',  ( 0.0000000000000000000, 1.000000000000000000, 0.0000000000000000000 ) ) ;
#9 = DATE_AND_TIME ( #61, #216 ) ;
#10 = DATE_AND_TIME ( #168, #52 ) ;
#11 = COORDINATED_UNIVERSAL_TIME_OFFSET ( 1, 0, .AHEAD. ) ;
#12 = AXIS2_PLACEMENT_3D ( 'NONE', #140, #87, #73 ) ;
#13 = PERSON_AND_ORGANIZATION ( #156, #67 ) ;
#14 = APPROVAL_STATUS ( 'not_yet_approved' ) ;
#15 = EDGE_CURVE ( 'NONE', #2, #2, #202, .T. ) ;
#16 = PERSON_AND_ORGANIZATION ( #156, #67 ) ;
#17 = ORIENTED_EDGE ( 'NONE', *, *, #191, .F. ) ;
#18 = AXIS2_PLACEMENT_3D ( 'NONE', #37, #58, #26 ) ;
#19 = CALENDAR_DATE ( 2021, 7, 10 ) ;
#20 = DIRECTION ( 'NONE',  ( 3.491481338843133355E-15, -1.224646799147353207E-16, 1.000000000000000000 ) ) ;
#21 = APPLICATION_CONTEXT ( 'configuration controlled 3d designs of mechanical parts and assemblies' ) ;
#22 = CARTESIAN_POINT ( 'NONE',  ( 0.0000000000000000000, 0.0000000000000000000, 0.0000000000000000000 ) ) ;
#23 = AXIS2_PLACEMENT_3D ( 'NONE', #211, #24, #125 ) ;
#24 = DIRECTION ( 'NONE',  ( -3.491481338843133355E-15, 1.224646799147353207E-16, -1.000000000000000000 ) ) ;
#25 = DIRECTION ( 'NONE',  ( -3.491481338843133355E-15, 1.224646799147353207E-16, -1.000000000000000000 ) ) ;
#26 = DIRECTION ( 'NONE',  ( -4.275831445896958607E-31, -1.000000000000000000, -1.224646799147353207E-16 ) ) ;
#27 = DIRECTION ( 'NONE',  ( 4.275831445896958607E-31, 1.000000000000000000, 1.224646799147353207E-16 ) ) ;
#28 = PRODUCT_DEFINITION ( 'UNKNOWN', '', #189, #108 ) ;
#29 = PERSON_AND_ORGANIZATION ( #156, #67 ) ;
#30 = COORDINATED_UNIVERSAL_TIME_OFFSET ( 1, 0, .AHEAD. ) ;
#31 = AXIS2_PLACEMENT_3D ( 'NONE', #22, #194, #100 ) ;
#32 = ORIENTED_EDGE ( 'NONE', *, *, #169, .T. ) ;
#33 = ORIENTED_EDGE ( 'NONE', *, *, #15, .F. ) ;
#34 = AXIS2_PLACEMENT_3D ( 'NONE', #195, #56, #8 ) ;
#35 = ORIENTED_EDGE ( 'NONE', *, *, #203, .T. ) ;
#36 = DIRECTION ( 'NONE',  ( 0.0000000000000000000, 1.000000000000000000, 0.0000000000000000000 ) ) ;
#37 = CARTESIAN_POINT ( 'NONE',  ( 3.910459099504309989E-14, -2.072306899813267988E-31, 11.20000000000000107 ) ) ;
#38 = AXIS2_PLACEMENT_3D ( 'NONE', #166, #107, #96 ) ;
#39 = FACE_OUTER_BOUND ( 'NONE', #190, .T. ) ;
#40 = CARTESIAN_POINT ( 'NONE',  ( 1.047444401652940007E-13, -3.673940397442059178E-15, 30.00000000000000000 ) ) ;
#41 = CARTESIAN_POINT ( 'NONE',  ( 3.943719926403360643E-14, 0.7499999999999963363, 11.29526279441628489 ) ) ;
#42 = AXIS2_PLACEMENT_3D ( 'NONE', #102, #25, #161 ) ;
#43 = MECHANICAL_CONTEXT ( 'NONE', #130, 'mechanical' ) ;
#44 = LOCAL_TIME ( 15, 47, 22.00000000000000000, #11 ) ;
#45 = CC_DESIGN_PERSON_AND_ORGANIZATION_ASSIGNMENT ( #29, #218, ( #28 ) ) ;
#46 = COORDINATED_UNIVERSAL_TIME_OFFSET ( 1, 0, .AHEAD. ) ;
#47 = PERSON_AND_ORGANIZATION_ROLE ( 'classification_officer' ) ;
#48 = CC_DESIGN_PERSON_AND_ORGANIZATION_ASSIGNMENT ( #13, #47, ( #223 ) ) ;
#49 = EDGE_LOOP ( 'NONE', ( #33 ) ) ;
#50 = PERSON_AND_ORGANIZATION_ROLE ( 'creator' ) ;
#51 = CC_DESIGN_DATE_AND_TIME_ASSIGNMENT ( #9, #219, ( #28 ) ) ;
#52 = LOCAL_TIME ( 15, 47, 22.00000000000000000, #30 ) ;
#53 = DIRECTION ( 'NONE',  ( -3.491481338843133355E-15, 1.224646799147353207E-16, -1.000000000000000000 ) ) ;
#54 = FACE_OUTER_BOUND ( 'NONE', #116, .T. ) ;
#55 = CARTESIAN_POINT ( 'NONE',  ( 1.047444401652940007E-13, 4.124339402320053683E-33, 30.00000000000000000 ) ) ;
#56 = DIRECTION ( 'NONE',  ( -3.491481338843133355E-15, 1.224646799147353207E-16, -1.000000000000000000 ) ) ;
#57 = EDGE_CURVE ( 'NONE', #198, #198, #170, .T. ) ;
#58 = DIRECTION ( 'NONE',  ( 3.491481338843133355E-15, -1.224646799147353207E-16, 1.000000000000000000 ) ) ;
#59 = PERSON_AND_ORGANIZATION ( #156, #67 ) ;
#60 = PRODUCT_RELATED_PRODUCT_CATEGORY ( 'detail', '', ( #199 ) ) ;
#61 = CALENDAR_DATE ( 2021, 7, 10 ) ;
#62 = CARTESIAN_POINT ( 'NONE',  ( 1.047444401652940007E-13, 0.5499999999999964917, 30.00000000000000000 ) ) ;
#63 = AXIS2_PLACEMENT_3D ( 'NONE', #174, #20, #157 ) ;
#64 = EDGE_LOOP ( 'NONE', ( #131 ) ) ;
#65 = CALENDAR_DATE ( 2021, 7, 10 ) ;
#66 = EDGE_LOOP ( 'NONE', ( #69 ) ) ;
#67 = ORGANIZATION ( 'UNSPECIFIED', 'UNSPECIFIED', '' ) ;
#68 = CALENDAR_DATE ( 2021, 7, 10 ) ;
#69 = ORIENTED_EDGE ( 'NONE', *, *, #57, .F. ) ;
#70 = CARTESIAN_POINT ( 'NONE',  ( 1.458036078813432738E-15, -5.114102135089347791E-17, 0.4175981302241580928 ) ) ;
#71 = CARTESIAN_POINT ( 'NONE',  ( 3.910459099504309989E-14, 0.6949999999999977307, 11.20000000000000107 ) ) ;
#72 = CC_DESIGN_PERSON_AND_ORGANIZATION_ASSIGNMENT ( #110, #50, ( #189 ) ) ;
#73 = DIRECTION ( 'NONE',  ( 0.0000000000000000000, 1.000000000000000000, 0.0000000000000000000 ) ) ;
#74 = FACE_OUTER_BOUND ( 'NONE', #66, .T. ) ;
#75 = FACE_OUTER_BOUND ( 'NONE', #134, .T. ) ;
#76 =( NAMED_UNIT ( * ) PLANE_ANGLE_UNIT ( ) SI_UNIT ( $, .RADIAN. ) );
#77 = CC_DESIGN_APPROVAL ( #141, ( #223 ) ) ;
#78 = PERSON_AND_ORGANIZATION_ROLE ( 'design_supplier' ) ;
#79 = AXIS2_PLACEMENT_3D ( 'NONE', #145, #101, #36 ) ;
#80 = APPROVAL ( #183, 'UNSPECIFIED' ) ;
#81 = COORDINATED_UNIVERSAL_TIME_OFFSET ( 1, 0, .AHEAD. ) ;
#82 = ORIENTED_EDGE ( 'NONE', *, *, #169, .F. ) ;
#83 = DIRECTION ( 'NONE',  ( 4.275831445896959482E-31, 1.000000000000000000, 1.224646799147353207E-16 ) ) ;
#84 = APPROVAL_PERSON_ORGANIZATION ( #91, #217, #146 ) ;
#85 = CARTESIAN_POINT ( 'NONE',  ( 1.458036078813433132E-15, 0.6949999999999986189, 0.4175981302241582038 ) ) ;
#86 = ADVANCED_FACE ( 'NONE', ( #39 ), #176, .F. ) ;
#87 = DIRECTION ( 'NONE',  ( -3.491481338843133355E-15, 1.224646799147353207E-16, -1.000000000000000000 ) ) ;
#88 = CYLINDRICAL_SURFACE ( 'NONE', #31, 0.6949999999999988409 ) ;
#89 = APPROVAL_PERSON_ORGANIZATION ( #16, #141, #117 ) ;
#90 = CC_DESIGN_PERSON_AND_ORGANIZATION_ASSIGNMENT ( #59, #128, ( #199 ) ) ;
#91 = PERSON_AND_ORGANIZATION ( #156, #67 ) ;
#92 = DIRECTION ( 'NONE',  ( 5.542244444279826708E-31, 1.000000000000000000, 1.560003125878426828E-16 ) ) ;
#93 = COORDINATED_UNIVERSAL_TIME_OFFSET ( 1, 0, .AHEAD. ) ;
#94 =( LENGTH_UNIT ( ) NAMED_UNIT ( * ) SI_UNIT ( .MILLI., .METRE. ) );
#95 = AXIS2_PLACEMENT_3D ( 'NONE', #147, #53, #83 ) ;
#96 = DIRECTION ( 'NONE',  ( 1.000000000000000000, 0.0000000000000000000, 0.0000000000000000000 ) ) ;
#97 = AXIS2_PLACEMENT_3D ( 'NONE', #103, #120, #179 ) ;
#98 = FACE_OUTER_BOUND ( 'NONE', #135, .T. ) ;
#99 = CONICAL_SURFACE ( 'NONE', #63, 0.7499999999999977796, 0.5235987755983109171 ) ;
#100 = DIRECTION ( 'NONE',  ( 4.275831445896957731E-31, 1.000000000000000000, 1.224646799147353207E-16 ) ) ;
#101 = DIRECTION ( 'NONE',  ( -3.491481338843133355E-15, 1.224646799147353207E-16, -1.000000000000000000 ) ) ;
#102 = CARTESIAN_POINT ( 'NONE',  ( 3.910459099504309989E-14, -1.371604415045035710E-15, 11.20000000000000107 ) ) ;
#103 = CARTESIAN_POINT ( 'NONE',  ( 1.458036078813432738E-15, -5.114102135089347791E-17, 0.4175981302241580928 ) ) ;
#104 = CARTESIAN_POINT ( 'NONE',  ( 3.910459099504309989E-14, 0.6949999999999977307, 11.20000000000000107 ) ) ;
#105 = CONICAL_SURFACE ( 'NONE', #137, 0.5500000000000001554, 0.7853981633974510546 ) ;
#106 = APPLICATION_PROTOCOL_DEFINITION ( 'international standard', 'config_control_design', 1994, #21 ) ;
#107 = DIRECTION ( 'NONE',  ( 0.0000000000000000000, 0.0000000000000000000, 1.000000000000000000 ) ) ;
#108 = DESIGN_CONTEXT ( 'detailed design', #21, 'design' ) ;
#109 = ADVANCED_BREP_SHAPE_REPRESENTATION ( '37028', ( #215, #139, #38 ), #143 ) ;
#110 = PERSON_AND_ORGANIZATION ( #156, #67 ) ;
#111 = SHAPE_DEFINITION_REPRESENTATION ( #212, #109 ) ;
#112 = EDGE_LOOP ( 'NONE', ( #82 ) ) ;
#113 = APPROVAL_DATE_TIME ( #204, #141 ) ;
#114 = AXIS2_PLACEMENT_3D ( 'NONE', #7, #178, #158 ) ;
#115 = ADVANCED_FACE ( 'NONE', ( #192, #197 ), #105, .T. ) ;
#116 = EDGE_LOOP ( 'NONE', ( #171 ) ) ;
#117 = APPROVAL_ROLE ( '' ) ;
#118 = ORIENTED_EDGE ( 'NONE', *, *, #15, .T. ) ;
#119 = AXIS2_PLACEMENT_3D ( 'NONE', #70, #210, #92 ) ;
#120 = DIRECTION ( 'NONE',  ( 3.491481338843133355E-15, -1.224646799147353207E-16, 1.000000000000000000 ) ) ;
#121 = PLANE ( 'NONE',  #200 ) ;
#122 = FACE_OUTER_BOUND ( 'NONE', #49, .T. ) ;
#123 = LOCAL_TIME ( 15, 47, 22.00000000000000000, #81 ) ;
#124 = CYLINDRICAL_SURFACE ( 'NONE', #95, 0.7499999999999988898 ) ;
#125 = DIRECTION ( 'NONE',  ( 0.0000000000000000000, 1.000000000000000000, 0.0000000000000000000 ) ) ;
#126 = CIRCLE ( 'NONE', #23, 0.5500000000000001554 ) ;
#127 = APPLICATION_PROTOCOL_DEFINITION ( 'international standard', 'config_control_design', 1994, #130 ) ;
#128 = PERSON_AND_ORGANIZATION_ROLE ( 'design_owner' ) ;
#129 = CIRCLE ( 'NONE', #34, 0.7500000000000000000 ) ;
#130 = APPLICATION_CONTEXT ( 'configuration controlled 3d designs of mechanical parts and assemblies' ) ;
#131 = ORIENTED_EDGE ( 'NONE', *, *, #191, .T. ) ;
#132 = EDGE_CURVE ( 'NONE', #160, #160, #167, .T. ) ;
#133 = CLOSED_SHELL ( 'NONE', ( #86, #5, #186, #115, #144 ) ) ;
#134 = EDGE_LOOP ( 'NONE', ( #32 ) ) ;
#135 = EDGE_LOOP ( 'NONE', ( #222 ) ) ;
#136 = PERSON_AND_ORGANIZATION ( #156, #67 ) ;
#137 = AXIS2_PLACEMENT_3D ( 'NONE', #40, #163, #142 ) ;
#138 = VERTEX_POINT ( 'NONE', #3 ) ;
#139 = MANIFOLD_SOLID_BREP ( 'Corps-Déplacer/Copier1[2]', #151 ) ;
#140 = CARTESIAN_POINT ( 'NONE',  ( 3.943719926403360643E-14, -1.383270742671009225E-15, 11.29526279441628489 ) ) ;
#141 = APPROVAL ( #14, 'UNSPECIFIED' ) ;
#142 = DIRECTION ( 'NONE',  ( 0.0000000000000000000, 1.000000000000000000, 0.0000000000000000000 ) ) ;
#143 =( GEOMETRIC_REPRESENTATION_CONTEXT ( 3 ) GLOBAL_UNCERTAINTY_ASSIGNED_CONTEXT ( ( #187 ) ) GLOBAL_UNIT_ASSIGNED_CONTEXT ( ( #94, #76, #148 ) ) REPRESENTATION_CONTEXT ( 'NONE', 'WORKASPACE' ) );
#144 = ADVANCED_FACE ( 'NONE', ( #54 ), #121, .F. ) ;
#145 = CARTESIAN_POINT ( 'NONE',  ( 3.910459099504309989E-14, -1.371604415045035710E-15, 11.20000000000000107 ) ) ;
#146 = APPROVAL_ROLE ( '' ) ;
#147 = CARTESIAN_POINT ( 'NONE',  ( 0.0000000000000000000, 0.0000000000000000000, 0.0000000000000000000 ) ) ;
#148 =( NAMED_UNIT ( * ) SI_UNIT ( $, .STERADIAN. ) SOLID_ANGLE_UNIT ( ) );
#149 = APPROVAL_ROLE ( '' ) ;
#150 = ADVANCED_FACE ( 'NONE', ( #165 ), #1, .T. ) ;
#151 = CLOSED_SHELL ( 'NONE', ( #150, #185, #162 ) ) ;
#152 = EDGE_LOOP ( 'NONE', ( #118 ) ) ;
#153 = CC_DESIGN_DATE_AND_TIME_ASSIGNMENT ( #221, #207, ( #223 ) ) ;
#154 = EDGE_LOOP ( 'NONE', ( #35 ) ) ;
#155 = LOCAL_TIME ( 15, 47, 22.00000000000000000, #46 ) ;
#156 = PERSON ( 'UNSPECIFIED', 'UNSPECIFIED', 'UNSPECIFIED', ('UNSPECIFIED'), ('UNSPECIFIED'), ('UNSPECIFIED') ) ;
#157 = DIRECTION ( 'NONE',  ( 0.0000000000000000000, -1.000000000000000000, 0.0000000000000000000 ) ) ;
#158 = DIRECTION ( 'NONE',  ( -4.275831445896958607E-31, -1.000000000000000000, -1.224646799147353207E-16 ) ) ;
#159 = CIRCLE ( 'NONE', #79, 0.6949999999999990630 ) ;
#160 = VERTEX_POINT ( 'NONE', #104 ) ;
#161 = DIRECTION ( 'NONE',  ( 0.0000000000000000000, 1.000000000000000000, 0.0000000000000000000 ) ) ;
#162 = ADVANCED_FACE ( 'NONE', ( #4 ), #214, .T. ) ;
#163 = DIRECTION ( 'NONE',  ( -3.491481338843133355E-15, 1.224646799147353207E-16, -1.000000000000000000 ) ) ;
#164 = APPROVAL_STATUS ( 'not_yet_approved' ) ;
#165 = FACE_OUTER_BOUND ( 'NONE', #152, .T. ) ;
#166 = CARTESIAN_POINT ( 'NONE',  ( 0.0000000000000000000, 0.0000000000000000000, 0.0000000000000000000 ) ) ;
#167 = CIRCLE ( 'NONE', #42, 0.6949999999999990630 ) ;
#168 = CALENDAR_DATE ( 2021, 7, 10 ) ;
#169 = EDGE_CURVE ( 'NONE', #138, #138, #129, .T. ) ;
#170 = CIRCLE ( 'NONE', #12, 0.7499999999999977796 ) ;
#171 = ORIENTED_EDGE ( 'NONE', *, *, #203, .F. ) ;
#172 = APPROVAL_DATE_TIME ( #173, #217 ) ;
#173 = DATE_AND_TIME ( #68, #155 ) ;
#174 = CARTESIAN_POINT ( 'NONE',  ( 3.943719926403360643E-14, -1.383270742671009225E-15, 11.29526279441628489 ) ) ;
#175 = DIRECTION ( 'NONE',  ( -3.491481338843133355E-15, 1.224646799147353207E-16, -1.000000000000000000 ) ) ;
#176 = PLANE ( 'NONE',  #114 ) ;
#177 = CC_DESIGN_APPROVAL ( #217, ( #189 ) ) ;
#178 = DIRECTION ( 'NONE',  ( 3.491481338843133355E-15, -1.224646799147353207E-16, 1.000000000000000000 ) ) ;
#179 = DIRECTION ( 'NONE',  ( -5.542244444279826708E-31, -1.000000000000000000, -1.560003125878426828E-16 ) ) ;
#180 = VERTEX_POINT ( 'NONE', #71 ) ;
#181 = APPROVAL_DATE_TIME ( #10, #80 ) ;
#182 = VERTEX_POINT ( 'NONE', #62 ) ;
#183 = APPROVAL_STATUS ( 'not_yet_approved' ) ;
#184 = CC_DESIGN_SECURITY_CLASSIFICATION ( #223, ( #189 ) ) ;
#185 = ADVANCED_FACE ( 'NONE', ( #122, #213 ), #88, .T. ) ;
#186 = ADVANCED_FACE ( 'NONE', ( #74, #75 ), #124, .T. ) ;
#187 = UNCERTAINTY_MEASURE_WITH_UNIT (LENGTH_MEASURE( 1.000000000000000082E-05 ), #94, 'distance_accuracy_value', 'NONE');
#188 = FACE_BOUND ( 'NONE', #206, .T. ) ;
#189 = PRODUCT_DEFINITION_FORMATION_WITH_SPECIFIED_SOURCE ( 'ANY', '', #199, .NOT_KNOWN. ) ;
#190 = EDGE_LOOP ( 'NONE', ( #205 ) ) ;
#191 = EDGE_CURVE ( 'NONE', #180, #180, #159, .T. ) ;
#192 = FACE_OUTER_BOUND ( 'NONE', #112, .T. ) ;
#193 = CC_DESIGN_PERSON_AND_ORGANIZATION_ASSIGNMENT ( #136, #78, ( #189 ) ) ;
#194 = DIRECTION ( 'NONE',  ( -3.491481338843133355E-15, 1.224646799147353207E-16, -1.000000000000000000 ) ) ;
#195 = CARTESIAN_POINT ( 'NONE',  ( 1.040461438975253740E-13, -3.649447461459112464E-15, 29.80000000000000071 ) ) ;
#196 = CC_DESIGN_APPROVAL ( #80, ( #28 ) ) ;
#197 = FACE_BOUND ( 'NONE', #154, .T. ) ;
#198 = VERTEX_POINT ( 'NONE', #41 ) ;
#199 = PRODUCT ( '37028', '37028', '', ( #43 ) ) ;
#200 = AXIS2_PLACEMENT_3D ( 'NONE', #55, #175, #27 ) ;
#201 = PERSON_AND_ORGANIZATION ( #156, #67 ) ;
#202 = CIRCLE ( 'NONE', #119, 0.6949999999999986189 ) ;
#203 = EDGE_CURVE ( 'NONE', #182, #182, #126, .T. ) ;
#204 = DATE_AND_TIME ( #65, #44 ) ;
#205 = ORIENTED_EDGE ( 'NONE', *, *, #132, .T. ) ;
#206 = EDGE_LOOP ( 'NONE', ( #208 ) ) ;
#207 = DATE_TIME_ROLE ( 'classification_date' ) ;
#208 = ORIENTED_EDGE ( 'NONE', *, *, #132, .F. ) ;
#209 = EDGE_LOOP ( 'NONE', ( #17 ) ) ;
#210 = DIRECTION ( 'NONE',  ( -3.491481338843133355E-15, 1.224646799147353207E-16, -1.000000000000000000 ) ) ;
#211 = CARTESIAN_POINT ( 'NONE',  ( 1.047444401652940007E-13, -3.673940397442059178E-15, 30.00000000000000000 ) ) ;
#212 = PRODUCT_DEFINITION_SHAPE ( 'NONE', 'NONE',  #28 ) ;
#213 = FACE_OUTER_BOUND ( 'NONE', #64, .T. ) ;
#214 = PLANE ( 'NONE',  #18 ) ;
#215 = MANIFOLD_SOLID_BREP ( 'Corps-Déplacer/Copier1[1]', #133 ) ;
#216 = LOCAL_TIME ( 15, 47, 22.00000000000000000, #93 ) ;
#217 = APPROVAL ( #164, 'UNSPECIFIED' ) ;
#218 = PERSON_AND_ORGANIZATION_ROLE ( 'creator' ) ;
#219 = DATE_TIME_ROLE ( 'creation_date' ) ;
#220 = SECURITY_CLASSIFICATION_LEVEL ( 'unclassified' ) ;
#221 = DATE_AND_TIME ( #19, #123 ) ;
#222 = ORIENTED_EDGE ( 'NONE', *, *, #57, .T. ) ;
#223 = SECURITY_CLASSIFICATION ( '', '', #220 ) ;
ENDSEC;
END-ISO-10303-21;
