ISO-10303-21;
HEADER;
FILE_DESCRIPTION (( 'STEP AP203' ),
    '1' );
FILE_NAME ('37027.step',
    '2021-10-07T13:47:21',
    ( '' ),
    ( '' ),
    'SwSTEP 2.0',
    'SolidWorks 2019',
    '' );
FILE_SCHEMA (( 'CONFIG_CONTROL_DESIGN' ));
ENDSEC;

DATA;
#1 = APPROVAL_STATUS ( 'not_yet_approved' ) ;
#2 = DIRECTION ( 'NONE',  ( -4.275831445896958607E-31, -1.000000000000000000, -1.224646799147353207E-16 ) ) ;
#3 = ADVANCED_FACE ( 'NONE', ( #82 ), #174, .T. ) ;
#4 = EDGE_LOOP ( 'NONE', ( #29 ) ) ;
#5 = CARTESIAN_POINT ( 'NONE',  ( 3.946743637939637517E-14, 0.7499999999999963363, 11.30392304845413065 ) ) ;
#6 = ADVANCED_FACE ( 'NONE', ( #65, #211 ), #124, .T. ) ;
#7 = DIRECTION ( 'NONE',  ( -3.491481338843133355E-15, 1.224646799147353207E-16, -1.000000000000000000 ) ) ;
#8 = DIRECTION ( 'NONE',  ( -3.491481338843133355E-15, 1.224646799147353207E-16, -1.000000000000000000 ) ) ;
#9 = DIRECTION ( 'NONE',  ( 0.0000000000000000000, 1.000000000000000000, 0.0000000000000000000 ) ) ;
#10 = VERTEX_POINT ( 'NONE', #20 ) ;
#11 = EDGE_CURVE ( 'NONE', #146, #146, #103, .T. ) ;
#12 = APPLICATION_PROTOCOL_DEFINITION ( 'international standard', 'config_control_design', 1994, #67 ) ;
#13 = PERSON_AND_ORGANIZATION_ROLE ( 'classification_officer' ) ;
#14 = AXIS2_PLACEMENT_3D ( 'NONE', #25, #8, #194 ) ;
#15 = ADVANCED_FACE ( 'NONE', ( #183, #48 ), #101, .T. ) ;
#16 = DATE_AND_TIME ( #221, #166 ) ;
#17 = CARTESIAN_POINT ( 'NONE',  ( 3.910459099504309358E-14, 0.6899999999999979483, 11.19999999999999929 ) ) ;
#18 = ORIENTED_EDGE ( 'NONE', *, *, #11, .T. ) ;
#19 = ADVANCED_FACE ( 'NONE', ( #143, #49 ), #33, .T. ) ;
#20 = CARTESIAN_POINT ( 'NONE',  ( 3.910459099504309358E-14, 0.6899999999999979483, 11.19999999999999929 ) ) ;
#21 = FACE_OUTER_BOUND ( 'NONE', #30, .T. ) ;
#22 = DIRECTION ( 'NONE',  ( 0.0000000000000000000, 1.000000000000000000, 0.0000000000000000000 ) ) ;
#23 = APPROVAL ( #184, 'UNSPECIFIED' ) ;
#24 = CARTESIAN_POINT ( 'NONE',  ( 3.946743637939637517E-14, -1.384331317909734072E-15, 11.30392304845413065 ) ) ;
#25 = CARTESIAN_POINT ( 'NONE',  ( 0.0000000000000000000, 0.0000000000000000000, 0.0000000000000000000 ) ) ;
#26 = APPROVAL_ROLE ( '' ) ;
#27 = PERSON_AND_ORGANIZATION ( #37, #42 ) ;
#28 = AXIS2_PLACEMENT_3D ( 'NONE', #24, #180, #22 ) ;
#29 = ORIENTED_EDGE ( 'NONE', *, *, #181, .T. ) ;
#30 = EDGE_LOOP ( 'NONE', ( #18 ) ) ;
#31 = EDGE_LOOP ( 'NONE', ( #132 ) ) ;
#32 = EDGE_LOOP ( 'NONE', ( #135 ) ) ;
#33 = CYLINDRICAL_SURFACE ( 'NONE', #14, 0.6899999999999989475 ) ;
#34 = DIRECTION ( 'NONE',  ( -3.491481338843133355E-15, 1.224646799147353207E-16, -1.000000000000000000 ) ) ;
#35 = CIRCLE ( 'NONE', #28, 0.7499999999999977796 ) ;
#36 = DIRECTION ( 'NONE',  ( 3.491481338843133355E-15, -1.224646799147353207E-16, 1.000000000000000000 ) ) ;
#37 = PERSON ( 'UNSPECIFIED', 'UNSPECIFIED', 'UNSPECIFIED', ('UNSPECIFIED'), ('UNSPECIFIED'), ('UNSPECIFIED') ) ;
#38 = PRODUCT ( '37027', '37027', '', ( #173 ) ) ;
#39 = CARTESIAN_POINT ( 'NONE',  ( 1.447546610620530652E-15, 0.6899999999999985034, 0.4145938271290203758 ) ) ;
#40 = DIRECTION ( 'NONE',  ( 4.275831445896959482E-31, 1.000000000000000000, 1.224646799147353207E-16 ) ) ;
#41 = CARTESIAN_POINT ( 'NONE',  ( 0.0000000000000000000, 0.0000000000000000000, 0.0000000000000000000 ) ) ;
#42 = ORGANIZATION ( 'UNSPECIFIED', 'UNSPECIFIED', '' ) ;
#43 = LOCAL_TIME ( 15, 47, 21.00000000000000000, #60 ) ;
#44 = PERSON_AND_ORGANIZATION_ROLE ( 'creator' ) ;
#45 = PERSON_AND_ORGANIZATION_ROLE ( 'creator' ) ;
#46 = AXIS2_PLACEMENT_3D ( 'NONE', #75, #36, #72 ) ;
#47 = AXIS2_PLACEMENT_3D ( 'NONE', #193, #7, #145 ) ;
#48 = FACE_OUTER_BOUND ( 'NONE', #4, .T. ) ;
#49 = FACE_OUTER_BOUND ( 'NONE', #110, .T. ) ;
#50 = FACE_OUTER_BOUND ( 'NONE', #152, .T. ) ;
#51 = AXIS2_PLACEMENT_3D ( 'NONE', #41, #94, #108 ) ;
#52 = CC_DESIGN_PERSON_AND_ORGANIZATION_ASSIGNMENT ( #167, #13, ( #129 ) ) ;
#53 = AXIS2_PLACEMENT_3D ( 'NONE', #179, #34, #148 ) ;
#54 = APPROVAL_PERSON_ORGANIZATION ( #62, #70, #77 ) ;
#55 = DIRECTION ( 'NONE',  ( 3.491481338843133355E-15, -1.224646799147353207E-16, 1.000000000000000000 ) ) ;
#56 = DIRECTION ( 'NONE',  ( -3.491481338843133355E-15, 1.224646799147353207E-16, -1.000000000000000000 ) ) ;
#57 = PERSON_AND_ORGANIZATION ( #37, #42 ) ;
#58 = DATE_TIME_ROLE ( 'creation_date' ) ;
#59 = CIRCLE ( 'NONE', #147, 0.6899999999999992806 ) ;
#60 = COORDINATED_UNIVERSAL_TIME_OFFSET ( 1, 0, .AHEAD. ) ;
#61 = EDGE_LOOP ( 'NONE', ( #81 ) ) ;
#62 = PERSON_AND_ORGANIZATION ( #37, #42 ) ;
#63 = DATE_TIME_ROLE ( 'classification_date' ) ;
#64 =( GEOMETRIC_REPRESENTATION_CONTEXT ( 3 ) GLOBAL_UNCERTAINTY_ASSIGNED_CONTEXT ( ( #76 ) ) GLOBAL_UNIT_ASSIGNED_CONTEXT ( ( #109, #187, #80 ) ) REPRESENTATION_CONTEXT ( 'NONE', 'WORKASPACE' ) );
#65 = FACE_OUTER_BOUND ( 'NONE', #158, .T. ) ;
#66 = ORIENTED_EDGE ( 'NONE', *, *, #185, .F. ) ;
#67 = APPLICATION_CONTEXT ( 'configuration controlled 3d designs of mechanical parts and assemblies' ) ;
#68 = AXIS2_PLACEMENT_3D ( 'NONE', #86, #55, #160 ) ;
#69 = VERTEX_POINT ( 'NONE', #112 ) ;
#70 = APPROVAL ( #1, 'UNSPECIFIED' ) ;
#71 = CALENDAR_DATE ( 2021, 7, 10 ) ;
#72 = DIRECTION ( 'NONE',  ( 0.0000000000000000000, -1.000000000000000000, 0.0000000000000000000 ) ) ;
#73 = DIRECTION ( 'NONE',  ( -5.582405635905043440E-31, -1.000000000000000000, -1.571307496355806900E-16 ) ) ;
#74 = CARTESIAN_POINT ( 'NONE',  ( 1.040461438975253740E-13, -3.649447461459112464E-15, 29.80000000000000071 ) ) ;
#75 = CARTESIAN_POINT ( 'NONE',  ( 3.946743637939637517E-14, -1.384331317909734072E-15, 11.30392304845413065 ) ) ;
#76 = UNCERTAINTY_MEASURE_WITH_UNIT (LENGTH_MEASURE( 1.000000000000000082E-05 ), #109, 'distance_accuracy_value', 'NONE');
#77 = APPROVAL_ROLE ( '' ) ;
#78 = AXIS2_PLACEMENT_3D ( 'NONE', #215, #56, #104 ) ;
#79 = COORDINATED_UNIVERSAL_TIME_OFFSET ( 1, 0, .AHEAD. ) ;
#80 =( NAMED_UNIT ( * ) SI_UNIT ( $, .STERADIAN. ) SOLID_ANGLE_UNIT ( ) );
#81 = ORIENTED_EDGE ( 'NONE', *, *, #11, .F. ) ;
#82 = FACE_OUTER_BOUND ( 'NONE', #32, .T. ) ;
#83 = EDGE_LOOP ( 'NONE', ( #95 ) ) ;
#84 = CC_DESIGN_DATE_AND_TIME_ASSIGNMENT ( #16, #58, ( #197 ) ) ;
#85 = CARTESIAN_POINT ( 'NONE',  ( 0.0000000000000000000, 0.0000000000000000000, 0.0000000000000000000 ) ) ;
#86 = CARTESIAN_POINT ( 'NONE',  ( 3.910459099504309358E-14, 5.174171250183382883E-33, 11.19999999999999929 ) ) ;
#87 = DIRECTION ( 'NONE',  ( 0.0000000000000000000, 1.000000000000000000, 0.0000000000000000000 ) ) ;
#88 = DIRECTION ( 'NONE',  ( -3.491481338843133355E-15, 1.224646799147353207E-16, -1.000000000000000000 ) ) ;
#89 = FACE_OUTER_BOUND ( 'NONE', #83, .T. ) ;
#90 = CC_DESIGN_PERSON_AND_ORGANIZATION_ASSIGNMENT ( #223, #153, ( #38 ) ) ;
#91 = DATE_AND_TIME ( #200, #201 ) ;
#92 = PERSON_AND_ORGANIZATION_ROLE ( 'design_supplier' ) ;
#93 = APPROVAL_ROLE ( '' ) ;
#94 = DIRECTION ( 'NONE',  ( 0.0000000000000000000, 0.0000000000000000000, 1.000000000000000000 ) ) ;
#95 = ORIENTED_EDGE ( 'NONE', *, *, #220, .T. ) ;
#96 = SHAPE_DEFINITION_REPRESENTATION ( #155, #134 ) ;
#97 = CLOSED_SHELL ( 'NONE', ( #133, #19, #3 ) ) ;
#98 = LOCAL_TIME ( 15, 47, 21.00000000000000000, #115 ) ;
#99 = DIRECTION ( 'NONE',  ( -3.491481338843133355E-15, 1.224646799147353207E-16, -1.000000000000000000 ) ) ;
#100 = DATE_AND_TIME ( #71, #98 ) ;
#101 = CONICAL_SURFACE ( 'NONE', #46, 0.7499999999999977796, 0.5235987755982978165 ) ;
#102 = DIRECTION ( 'NONE',  ( -3.491481338843133355E-15, 1.224646799147353207E-16, -1.000000000000000000 ) ) ;
#103 = CIRCLE ( 'NONE', #47, 0.6899999999999985034 ) ;
#104 = DIRECTION ( 'NONE',  ( 4.275831445896958607E-31, 1.000000000000000000, 1.224646799147353207E-16 ) ) ;
#105 = VERTEX_POINT ( 'NONE', #165 ) ;
#106 = PERSON_AND_ORGANIZATION ( #37, #42 ) ;
#107 = ADVANCED_FACE ( 'NONE', ( #196 ), #161, .F. ) ;
#108 = DIRECTION ( 'NONE',  ( 1.000000000000000000, 0.0000000000000000000, 0.0000000000000000000 ) ) ;
#109 =( LENGTH_UNIT ( ) NAMED_UNIT ( * ) SI_UNIT ( .MILLI., .METRE. ) );
#110 = EDGE_LOOP ( 'NONE', ( #205 ) ) ;
#111 = AXIS2_PLACEMENT_3D ( 'NONE', #210, #88, #198 ) ;
#112 = CARTESIAN_POINT ( 'NONE',  ( 1.040461438975253740E-13, 0.7499999999999963363, 29.80000000000000071 ) ) ;
#113 = CC_DESIGN_PERSON_AND_ORGANIZATION_ASSIGNMENT ( #169, #45, ( #117 ) ) ;
#114 = EDGE_LOOP ( 'NONE', ( #175 ) ) ;
#115 = COORDINATED_UNIVERSAL_TIME_OFFSET ( 1, 0, .AHEAD. ) ;
#116 = AXIS2_PLACEMENT_3D ( 'NONE', #127, #122, #73 ) ;
#117 = PRODUCT_DEFINITION_FORMATION_WITH_SPECIFIED_SOURCE ( 'ANY', '', #38, .NOT_KNOWN. ) ;
#118 = ORIENTED_EDGE ( 'NONE', *, *, #181, .F. ) ;
#119 = EDGE_CURVE ( 'NONE', #105, #105, #195, .T. ) ;
#120 = CARTESIAN_POINT ( 'NONE',  ( 3.910459099504309358E-14, -1.371604415045035513E-15, 11.19999999999999929 ) ) ;
#121 = APPROVAL_DATE_TIME ( #100, #23 ) ;
#122 = DIRECTION ( 'NONE',  ( 3.491481338843133355E-15, -1.224646799147353207E-16, 1.000000000000000000 ) ) ;
#123 = AXIS2_PLACEMENT_3D ( 'NONE', #85, #99, #40 ) ;
#124 = CYLINDRICAL_SURFACE ( 'NONE', #123, 0.7499999999999988898 ) ;
#125 = CC_DESIGN_APPROVAL ( #70, ( #117 ) ) ;
#126 = DIRECTION ( 'NONE',  ( -3.491481338843133355E-15, 1.224646799147353207E-16, -1.000000000000000000 ) ) ;
#127 = CARTESIAN_POINT ( 'NONE',  ( 1.447546610620530258E-15, -5.077310033398057749E-17, 0.4145938271290202648 ) ) ;
#128 = COORDINATED_UNIVERSAL_TIME_OFFSET ( 1, 0, .AHEAD. ) ;
#129 = SECURITY_CLASSIFICATION ( '', '', #206 ) ;
#130 = COORDINATED_UNIVERSAL_TIME_OFFSET ( 1, 0, .AHEAD. ) ;
#131 = DATE_AND_TIME ( #222, #213 ) ;
#132 = ORIENTED_EDGE ( 'NONE', *, *, #185, .T. ) ;
#133 = ADVANCED_FACE ( 'NONE', ( #21 ), #163, .T. ) ;
#134 = ADVANCED_BREP_SHAPE_REPRESENTATION ( '37027', ( #139, #214, #51 ), #64 ) ;
#135 = ORIENTED_EDGE ( 'NONE', *, *, #138, .F. ) ;
#136 = CLOSED_SHELL ( 'NONE', ( #149, #15, #6, #192, #107 ) ) ;
#137 = APPLICATION_PROTOCOL_DEFINITION ( 'international standard', 'config_control_design', 1994, #219 ) ;
#138 = EDGE_CURVE ( 'NONE', #10, #10, #141, .T. ) ;
#139 = MANIFOLD_SOLID_BREP ( 'Corps-Déplacer/Copier1[1]', #136 ) ;
#140 = CC_DESIGN_PERSON_AND_ORGANIZATION_ASSIGNMENT ( #27, #92, ( #117 ) ) ;
#141 = CIRCLE ( 'NONE', #171, 0.6899999999999992806 ) ;
#142 = PLANE ( 'NONE',  #68 ) ;
#143 = FACE_OUTER_BOUND ( 'NONE', #61, .T. ) ;
#144 = CC_DESIGN_DATE_AND_TIME_ASSIGNMENT ( #131, #63, ( #129 ) ) ;
#145 = DIRECTION ( 'NONE',  ( 5.582405635905043440E-31, 1.000000000000000000, 1.571307496355806900E-16 ) ) ;
#146 = VERTEX_POINT ( 'NONE', #39 ) ;
#147 = AXIS2_PLACEMENT_3D ( 'NONE', #120, #164, #9 ) ;
#148 = DIRECTION ( 'NONE',  ( 0.0000000000000000000, 1.000000000000000000, 0.0000000000000000000 ) ) ;
#149 = ADVANCED_FACE ( 'NONE', ( #89 ), #142, .F. ) ;
#150 = APPROVAL_STATUS ( 'not_yet_approved' ) ;
#151 = CALENDAR_DATE ( 2021, 7, 10 ) ;
#152 = EDGE_LOOP ( 'NONE', ( #66 ) ) ;
#153 = PERSON_AND_ORGANIZATION_ROLE ( 'design_owner' ) ;
#154 = CARTESIAN_POINT ( 'NONE',  ( 3.910459099504309358E-14, 5.174171250183382883E-33, 11.19999999999999929 ) ) ;
#155 = PRODUCT_DEFINITION_SHAPE ( 'NONE', 'NONE',  #197 ) ;
#156 = AXIS2_PLACEMENT_3D ( 'NONE', #74, #126, #87 ) ;
#157 = CC_DESIGN_SECURITY_CLASSIFICATION ( #129, ( #117 ) ) ;
#158 = EDGE_LOOP ( 'NONE', ( #118 ) ) ;
#159 = CIRCLE ( 'NONE', #156, 0.7500000000000000000 ) ;
#160 = DIRECTION ( 'NONE',  ( -4.275831445896958607E-31, -1.000000000000000000, -1.224646799147353207E-16 ) ) ;
#161 = PLANE ( 'NONE',  #78 ) ;
#162 = PRODUCT_RELATED_PRODUCT_CATEGORY ( 'detail', '', ( #38 ) ) ;
#163 = CONICAL_SURFACE ( 'NONE', #116, 0.6899999999999985034, 1.029744258676649649 ) ;
#164 = DIRECTION ( 'NONE',  ( -3.491481338843133355E-15, 1.224646799147353207E-16, -1.000000000000000000 ) ) ;
#165 = CARTESIAN_POINT ( 'NONE',  ( 1.047444401652940007E-13, 0.5499999999999964917, 30.00000000000000000 ) ) ;
#166 = LOCAL_TIME ( 15, 47, 21.00000000000000000, #128 ) ;
#167 = PERSON_AND_ORGANIZATION ( #37, #42 ) ;
#168 = VERTEX_POINT ( 'NONE', #17 ) ;
#169 = PERSON_AND_ORGANIZATION ( #37, #42 ) ;
#170 = CC_DESIGN_PERSON_AND_ORGANIZATION_ASSIGNMENT ( #57, #44, ( #197 ) ) ;
#171 = AXIS2_PLACEMENT_3D ( 'NONE', #212, #102, #199 ) ;
#172 = CC_DESIGN_APPROVAL ( #208, ( #197 ) ) ;
#173 = MECHANICAL_CONTEXT ( 'NONE', #67, 'mechanical' ) ;
#174 = PLANE ( 'NONE',  #189 ) ;
#175 = ORIENTED_EDGE ( 'NONE', *, *, #119, .F. ) ;
#176 = APPROVAL_PERSON_ORGANIZATION ( #203, #208, #93 ) ;
#177 = CC_DESIGN_APPROVAL ( #23, ( #129 ) ) ;
#178 = ORIENTED_EDGE ( 'NONE', *, *, #119, .T. ) ;
#179 = CARTESIAN_POINT ( 'NONE',  ( 1.047444401652940007E-13, -3.673940397442059178E-15, 30.00000000000000000 ) ) ;
#180 = DIRECTION ( 'NONE',  ( -3.491481338843133355E-15, 1.224646799147353207E-16, -1.000000000000000000 ) ) ;
#181 = EDGE_CURVE ( 'NONE', #217, #217, #35, .T. ) ;
#182 = FACE_BOUND ( 'NONE', #191, .T. ) ;
#183 = FACE_BOUND ( 'NONE', #188, .T. ) ;
#184 = APPROVAL_STATUS ( 'not_yet_approved' ) ;
#185 = EDGE_CURVE ( 'NONE', #69, #69, #159, .T. ) ;
#186 = APPROVAL_DATE_TIME ( #204, #70 ) ;
#187 =( NAMED_UNIT ( * ) PLANE_ANGLE_UNIT ( ) SI_UNIT ( $, .RADIAN. ) );
#188 = EDGE_LOOP ( 'NONE', ( #207 ) ) ;
#189 = AXIS2_PLACEMENT_3D ( 'NONE', #154, #190, #2 ) ;
#190 = DIRECTION ( 'NONE',  ( 3.491481338843133355E-15, -1.224646799147353207E-16, 1.000000000000000000 ) ) ;
#191 = EDGE_LOOP ( 'NONE', ( #178 ) ) ;
#192 = ADVANCED_FACE ( 'NONE', ( #50, #182 ), #216, .T. ) ;
#193 = CARTESIAN_POINT ( 'NONE',  ( 1.447546610620530258E-15, -5.077310033398057749E-17, 0.4145938271290202648 ) ) ;
#194 = DIRECTION ( 'NONE',  ( 4.275831445896958607E-31, 1.000000000000000000, 1.224646799147353207E-16 ) ) ;
#195 = CIRCLE ( 'NONE', #53, 0.5500000000000001554 ) ;
#196 = FACE_OUTER_BOUND ( 'NONE', #114, .T. ) ;
#197 = PRODUCT_DEFINITION ( 'UNKNOWN', '', #117, #218 ) ;
#198 = DIRECTION ( 'NONE',  ( 0.0000000000000000000, 1.000000000000000000, 0.0000000000000000000 ) ) ;
#199 = DIRECTION ( 'NONE',  ( 0.0000000000000000000, 1.000000000000000000, 0.0000000000000000000 ) ) ;
#200 = CALENDAR_DATE ( 2021, 7, 10 ) ;
#201 = LOCAL_TIME ( 15, 47, 21.00000000000000000, #130 ) ;
#202 = APPROVAL_DATE_TIME ( #91, #208 ) ;
#203 = PERSON_AND_ORGANIZATION ( #37, #42 ) ;
#204 = DATE_AND_TIME ( #151, #43 ) ;
#205 = ORIENTED_EDGE ( 'NONE', *, *, #138, .T. ) ;
#206 = SECURITY_CLASSIFICATION_LEVEL ( 'unclassified' ) ;
#207 = ORIENTED_EDGE ( 'NONE', *, *, #220, .F. ) ;
#208 = APPROVAL ( #150, 'UNSPECIFIED' ) ;
#209 = APPROVAL_PERSON_ORGANIZATION ( #106, #23, #26 ) ;
#210 = CARTESIAN_POINT ( 'NONE',  ( 1.047444401652940007E-13, -3.673940397442059178E-15, 30.00000000000000000 ) ) ;
#211 = FACE_OUTER_BOUND ( 'NONE', #31, .T. ) ;
#212 = CARTESIAN_POINT ( 'NONE',  ( 3.910459099504309358E-14, -1.371604415045035513E-15, 11.19999999999999929 ) ) ;
#213 = LOCAL_TIME ( 15, 47, 21.00000000000000000, #79 ) ;
#214 = MANIFOLD_SOLID_BREP ( 'Corps-Déplacer/Copier1[2]', #97 ) ;
#215 = CARTESIAN_POINT ( 'NONE',  ( 1.047444401652940007E-13, 4.124339402320053683E-33, 30.00000000000000000 ) ) ;
#216 = CONICAL_SURFACE ( 'NONE', #111, 0.5500000000000001554, 0.7853981633974510546 ) ;
#217 = VERTEX_POINT ( 'NONE', #5 ) ;
#218 = DESIGN_CONTEXT ( 'detailed design', #219, 'design' ) ;
#219 = APPLICATION_CONTEXT ( 'configuration controlled 3d designs of mechanical parts and assemblies' ) ;
#220 = EDGE_CURVE ( 'NONE', #168, #168, #59, .T. ) ;
#221 = CALENDAR_DATE ( 2021, 7, 10 ) ;
#222 = CALENDAR_DATE ( 2021, 7, 10 ) ;
#223 = PERSON_AND_ORGANIZATION ( #37, #42 ) ;
ENDSEC;
END-ISO-10303-21;
