ISO-10303-21;
HEADER;
FILE_DESCRIPTION (( 'STEP AP203' ),
    '1' );
FILE_NAME ('37025.step',
    '2021-10-07T13:47:20',
    ( '' ),
    ( '' ),
    'SwSTEP 2.0',
    'SolidWorks 2019',
    '' );
FILE_SCHEMA (( 'CONFIG_CONTROL_DESIGN' ));
ENDSEC;

DATA;
#1 = EDGE_LOOP ( 'NONE', ( #73 ) ) ;
#2 = CARTESIAN_POINT ( 'NONE',  ( 3.910459099504309989E-14, -1.371604415045035710E-15, 11.20000000000000107 ) ) ;
#3 = AXIS2_PLACEMENT_3D ( 'NONE', #134, #11, #24 ) ;
#4 = EDGE_LOOP ( 'NONE', ( #56 ) ) ;
#5 = ADVANCED_BREP_SHAPE_REPRESENTATION ( '37025', ( #214, #211, #74 ), #26 ) ;
#6 = CARTESIAN_POINT ( 'NONE',  ( 0.0000000000000000000, 0.0000000000000000000, 0.0000000000000000000 ) ) ;
#7 = CC_DESIGN_PERSON_AND_ORGANIZATION_ASSIGNMENT ( #138, #83, ( #154 ) ) ;
#8 = CYLINDRICAL_SURFACE ( 'NONE', #207, 0.6800000000000000488 ) ;
#9 = DIRECTION ( 'NONE',  ( 4.275831445896959482E-31, 1.000000000000000000, 1.224646799147353207E-16 ) ) ;
#10 = CARTESIAN_POINT ( 'NONE',  ( 1.426567674234725494E-15, -5.003725830015477050E-17, 0.4085852209387446088 ) ) ;
#11 = DIRECTION ( 'NONE',  ( -3.491481338843133355E-15, 1.224646799147353207E-16, -1.000000000000000000 ) ) ;
#12 = CLOSED_SHELL ( 'NONE', ( #105, #63, #110 ) ) ;
#13 = APPLICATION_CONTEXT ( 'configuration controlled 3d designs of mechanical parts and assemblies' ) ;
#14 = LOCAL_TIME ( 15, 47, 20.00000000000000000, #140 ) ;
#15 = PERSON_AND_ORGANIZATION ( #28, #197 ) ;
#16 = CC_DESIGN_DATE_AND_TIME_ASSIGNMENT ( #103, #171, ( #90 ) ) ;
#17 = CIRCLE ( 'NONE', #3, 0.6799999999999986056 ) ;
#18 = COORDINATED_UNIVERSAL_TIME_OFFSET ( 1, 0, .AHEAD. ) ;
#19 = ORIENTED_EDGE ( 'NONE', *, *, #59, .F. ) ;
#20 = EDGE_LOOP ( 'NONE', ( #178 ) ) ;
#21 = EDGE_LOOP ( 'NONE', ( #53 ) ) ;
#22 = AXIS2_PLACEMENT_3D ( 'NONE', #45, #167, #116 ) ;
#23 = CARTESIAN_POINT ( 'NONE',  ( 1.047444401652940007E-13, 0.5499999999999964917, 30.00000000000000000 ) ) ;
#24 = DIRECTION ( 'NONE',  ( 5.664499836433058579E-31, 1.000000000000000000, 1.594414959537509885E-16 ) ) ;
#25 = FACE_BOUND ( 'NONE', #4, .T. ) ;
#26 =( GEOMETRIC_REPRESENTATION_CONTEXT ( 3 ) GLOBAL_UNCERTAINTY_ASSIGNED_CONTEXT ( ( #87 ) ) GLOBAL_UNIT_ASSIGNED_CONTEXT ( ( #68, #155, #48 ) ) REPRESENTATION_CONTEXT ( 'NONE', 'WORKASPACE' ) );
#27 = DIRECTION ( 'NONE',  ( 3.491481338843133355E-15, -1.224646799147353207E-16, 1.000000000000000000 ) ) ;
#28 = PERSON ( 'UNSPECIFIED', 'UNSPECIFIED', 'UNSPECIFIED', ('UNSPECIFIED'), ('UNSPECIFIED'), ('UNSPECIFIED') ) ;
#29 = VERTEX_POINT ( 'NONE', #182 ) ;
#30 = CALENDAR_DATE ( 2021, 7, 10 ) ;
#31 = CALENDAR_DATE ( 2021, 7, 10 ) ;
#32 = ADVANCED_FACE ( 'NONE', ( #92, #213 ), #75, .T. ) ;
#33 = DIRECTION ( 'NONE',  ( 0.0000000000000000000, 0.0000000000000000000, 1.000000000000000000 ) ) ;
#34 = APPROVAL_STATUS ( 'not_yet_approved' ) ;
#35 = CALENDAR_DATE ( 2021, 7, 10 ) ;
#36 = AXIS2_PLACEMENT_3D ( 'NONE', #202, #46, #117 ) ;
#37 = DIRECTION ( 'NONE',  ( 3.491481338843133355E-15, -1.224646799147353207E-16, 1.000000000000000000 ) ) ;
#38 = ORIENTED_EDGE ( 'NONE', *, *, #59, .T. ) ;
#39 = EDGE_LOOP ( 'NONE', ( #38 ) ) ;
#40 = SHAPE_DEFINITION_REPRESENTATION ( #79, #5 ) ;
#41 = CIRCLE ( 'NONE', #77, 0.6800000000000014921 ) ;
#42 = APPROVAL ( #195, 'UNSPECIFIED' ) ;
#43 = CARTESIAN_POINT ( 'NONE',  ( 3.910459099504309989E-14, -2.073431719650264034E-31, 11.20000000000000107 ) ) ;
#44 = VERTEX_POINT ( 'NONE', #184 ) ;
#45 = CARTESIAN_POINT ( 'NONE',  ( 3.910459099504309989E-14, -2.073431719650264034E-31, 11.20000000000000107 ) ) ;
#46 = DIRECTION ( 'NONE',  ( -3.491481338843133355E-15, 1.224646799147353207E-16, -1.000000000000000000 ) ) ;
#47 = PLANE ( 'NONE',  #51 ) ;
#48 =( NAMED_UNIT ( * ) SI_UNIT ( $, .STERADIAN. ) SOLID_ANGLE_UNIT ( ) );
#49 = CC_DESIGN_PERSON_AND_ORGANIZATION_ASSIGNMENT ( #208, #121, ( #90 ) ) ;
#50 = PERSON_AND_ORGANIZATION_ROLE ( 'design_supplier' ) ;
#51 = AXIS2_PLACEMENT_3D ( 'NONE', #43, #218, #64 ) ;
#52 = COORDINATED_UNIVERSAL_TIME_OFFSET ( 1, 0, .AHEAD. ) ;
#53 = ORIENTED_EDGE ( 'NONE', *, *, #160, .F. ) ;
#54 = AXIS2_PLACEMENT_3D ( 'NONE', #62, #100, #148 ) ;
#55 = EDGE_LOOP ( 'NONE', ( #179 ) ) ;
#56 = ORIENTED_EDGE ( 'NONE', *, *, #124, .T. ) ;
#57 = LOCAL_TIME ( 15, 47, 20.00000000000000000, #206 ) ;
#58 = CALENDAR_DATE ( 2021, 7, 10 ) ;
#59 = EDGE_CURVE ( 'NONE', #118, #118, #41, .T. ) ;
#60 = FACE_OUTER_BOUND ( 'NONE', #20, .T. ) ;
#61 = DIRECTION ( 'NONE',  ( -3.491481338843133355E-15, 1.224646799147353207E-16, -1.000000000000000000 ) ) ;
#62 = CARTESIAN_POINT ( 'NONE',  ( 1.047444401652940007E-13, 4.124339402320053683E-33, 30.00000000000000000 ) ) ;
#63 = ADVANCED_FACE ( 'NONE', ( #168, #144 ), #8, .T. ) ;
#64 = DIRECTION ( 'NONE',  ( -4.275831445896958607E-31, -1.000000000000000000, -1.224646799147353207E-16 ) ) ;
#65 = DIRECTION ( 'NONE',  ( 4.275831445896958607E-31, 1.000000000000000000, 1.224646799147353207E-16 ) ) ;
#66 = PERSON_AND_ORGANIZATION_ROLE ( 'design_owner' ) ;
#67 = CC_DESIGN_DATE_AND_TIME_ASSIGNMENT ( #122, #169, ( #84 ) ) ;
#68 =( LENGTH_UNIT ( ) NAMED_UNIT ( * ) SI_UNIT ( .MILLI., .METRE. ) );
#69 = PERSON_AND_ORGANIZATION ( #28, #197 ) ;
#70 = APPROVAL_ROLE ( '' ) ;
#71 = CC_DESIGN_APPROVAL ( #131, ( #154 ) ) ;
#72 = CC_DESIGN_PERSON_AND_ORGANIZATION_ASSIGNMENT ( #173, #66, ( #109 ) ) ;
#73 = ORIENTED_EDGE ( 'NONE', *, *, #198, .T. ) ;
#74 = AXIS2_PLACEMENT_3D ( 'NONE', #191, #33, #123 ) ;
#75 = CONICAL_SURFACE ( 'NONE', #159, 0.7499999999999977796, 0.5235987755982913772 ) ;
#76 = EDGE_LOOP ( 'NONE', ( #93 ) ) ;
#77 = AXIS2_PLACEMENT_3D ( 'NONE', #2, #146, #115 ) ;
#78 = EDGE_CURVE ( 'NONE', #29, #29, #17, .T. ) ;
#79 = PRODUCT_DEFINITION_SHAPE ( 'NONE', 'NONE',  #84 ) ;
#80 = FACE_OUTER_BOUND ( 'NONE', #76, .T. ) ;
#81 = FACE_OUTER_BOUND ( 'NONE', #55, .T. ) ;
#82 = FACE_OUTER_BOUND ( 'NONE', #39, .T. ) ;
#83 = PERSON_AND_ORGANIZATION_ROLE ( 'creator' ) ;
#84 = PRODUCT_DEFINITION ( 'UNKNOWN', '', #154, #112 ) ;
#85 = CC_DESIGN_APPROVAL ( #181, ( #90 ) ) ;
#86 = COORDINATED_UNIVERSAL_TIME_OFFSET ( 1, 0, .AHEAD. ) ;
#87 = UNCERTAINTY_MEASURE_WITH_UNIT (LENGTH_MEASURE( 1.000000000000000082E-05 ), #68, 'distance_accuracy_value', 'NONE');
#88 = APPLICATION_PROTOCOL_DEFINITION ( 'international standard', 'config_control_design', 1994, #13 ) ;
#89 = APPROVAL_DATE_TIME ( #175, #131 ) ;
#90 = SECURITY_CLASSIFICATION ( '', '', #221 ) ;
#91 = CLOSED_SHELL ( 'NONE', ( #156, #32, #145, #142, #149 ) ) ;
#92 = FACE_BOUND ( 'NONE', #158, .T. ) ;
#93 = ORIENTED_EDGE ( 'NONE', *, *, #78, .T. ) ;
#94 = CC_DESIGN_APPROVAL ( #42, ( #84 ) ) ;
#95 = PRODUCT_RELATED_PRODUCT_CATEGORY ( 'detail', '', ( #109 ) ) ;
#96 = VERTEX_POINT ( 'NONE', #132 ) ;
#97 = PLANE ( 'NONE',  #54 ) ;
#98 = DIRECTION ( 'NONE',  ( 0.0000000000000000000, 1.000000000000000000, 0.0000000000000000000 ) ) ;
#99 = DIRECTION ( 'NONE',  ( 0.0000000000000000000, 1.000000000000000000, 0.0000000000000000000 ) ) ;
#100 = DIRECTION ( 'NONE',  ( -3.491481338843133355E-15, 1.224646799147353207E-16, -1.000000000000000000 ) ) ;
#101 = PERSON_AND_ORGANIZATION_ROLE ( 'creator' ) ;
#102 = CONICAL_SURFACE ( 'NONE', #152, 0.5500000000000001554, 0.7853981633974510546 ) ;
#103 = DATE_AND_TIME ( #31, #57 ) ;
#104 = APPLICATION_PROTOCOL_DEFINITION ( 'international standard', 'config_control_design', 1994, #162 ) ;
#105 = ADVANCED_FACE ( 'NONE', ( #80 ), #133, .T. ) ;
#106 = APPROVAL_ROLE ( '' ) ;
#107 = DIRECTION ( 'NONE',  ( 0.0000000000000000000, -1.000000000000000000, 0.0000000000000000000 ) ) ;
#108 = AXIS2_PLACEMENT_3D ( 'NONE', #10, #27, #203 ) ;
#109 = PRODUCT ( '37025', '37025', '', ( #194 ) ) ;
#110 = ADVANCED_FACE ( 'NONE', ( #164 ), #163, .T. ) ;
#111 = EDGE_LOOP ( 'NONE', ( #129 ) ) ;
#112 = DESIGN_CONTEXT ( 'detailed design', #162, 'design' ) ;
#113 = CARTESIAN_POINT ( 'NONE',  ( 3.910459099504309989E-14, 0.6800000000000000488, 11.20000000000000107 ) ) ;
#114 = LOCAL_TIME ( 15, 47, 20.00000000000000000, #52 ) ;
#115 = DIRECTION ( 'NONE',  ( 0.0000000000000000000, 1.000000000000000000, 0.0000000000000000000 ) ) ;
#116 = DIRECTION ( 'NONE',  ( -4.275831445896958607E-31, -1.000000000000000000, -1.224646799147353207E-16 ) ) ;
#117 = DIRECTION ( 'NONE',  ( 0.0000000000000000000, 1.000000000000000000, 0.0000000000000000000 ) ) ;
#118 = VERTEX_POINT ( 'NONE', #113 ) ;
#119 = PERSON_AND_ORGANIZATION ( #28, #197 ) ;
#120 = CALENDAR_DATE ( 2021, 7, 10 ) ;
#121 = PERSON_AND_ORGANIZATION_ROLE ( 'classification_officer' ) ;
#122 = DATE_AND_TIME ( #120, #114 ) ;
#123 = DIRECTION ( 'NONE',  ( 1.000000000000000000, 0.0000000000000000000, 0.0000000000000000000 ) ) ;
#124 = EDGE_CURVE ( 'NONE', #200, #200, #125, .T. ) ;
#125 = CIRCLE ( 'NONE', #209, 0.5500000000000001554 ) ;
#126 = ORIENTED_EDGE ( 'NONE', *, *, #160, .T. ) ;
#127 = CARTESIAN_POINT ( 'NONE',  ( 3.952791061012192525E-14, -1.386452468387183963E-15, 11.32124355652981862 ) ) ;
#128 = ORIENTED_EDGE ( 'NONE', *, *, #186, .F. ) ;
#129 = ORIENTED_EDGE ( 'NONE', *, *, #186, .T. ) ;
#130 = CYLINDRICAL_SURFACE ( 'NONE', #139, 0.7499999999999988898 ) ;
#131 = APPROVAL ( #34, 'UNSPECIFIED' ) ;
#132 = CARTESIAN_POINT ( 'NONE',  ( 3.952791061012192525E-14, 0.7499999999999963363, 11.32124355652981862 ) ) ;
#133 = CONICAL_SURFACE ( 'NONE', #108, 0.6799999999999986056, 1.029744258676649649 ) ;
#134 = CARTESIAN_POINT ( 'NONE',  ( 1.426567674234725494E-15, -5.003725830015477050E-17, 0.4085852209387446088 ) ) ;
#135 = DIRECTION ( 'NONE',  ( 0.0000000000000000000, 1.000000000000000000, 0.0000000000000000000 ) ) ;
#136 = CARTESIAN_POINT ( 'NONE',  ( 0.0000000000000000000, 0.0000000000000000000, 0.0000000000000000000 ) ) ;
#137 = CARTESIAN_POINT ( 'NONE',  ( 1.040461438975253740E-13, 0.7499999999999963363, 29.80000000000000071 ) ) ;
#138 = PERSON_AND_ORGANIZATION ( #28, #197 ) ;
#139 = AXIS2_PLACEMENT_3D ( 'NONE', #6, #199, #9 ) ;
#140 = COORDINATED_UNIVERSAL_TIME_OFFSET ( 1, 0, .AHEAD. ) ;
#141 = DATE_AND_TIME ( #58, #14 ) ;
#142 = ADVANCED_FACE ( 'NONE', ( #60, #25 ), #102, .T. ) ;
#143 = EDGE_LOOP ( 'NONE', ( #128 ) ) ;
#144 = FACE_OUTER_BOUND ( 'NONE', #111, .T. ) ;
#145 = ADVANCED_FACE ( 'NONE', ( #215, #165 ), #130, .T. ) ;
#146 = DIRECTION ( 'NONE',  ( -3.491481338843133355E-15, 1.224646799147353207E-16, -1.000000000000000000 ) ) ;
#147 = CARTESIAN_POINT ( 'NONE',  ( 1.047444401652940007E-13, -3.673940397442059178E-15, 30.00000000000000000 ) ) ;
#148 = DIRECTION ( 'NONE',  ( 4.275831445896958607E-31, 1.000000000000000000, 1.224646799147353207E-16 ) ) ;
#149 = ADVANCED_FACE ( 'NONE', ( #81 ), #97, .F. ) ;
#150 = CARTESIAN_POINT ( 'NONE',  ( 1.040461438975253740E-13, -3.649447461459112464E-15, 29.80000000000000071 ) ) ;
#151 = PERSON_AND_ORGANIZATION ( #28, #197 ) ;
#152 = AXIS2_PLACEMENT_3D ( 'NONE', #147, #189, #98 ) ;
#153 = APPROVAL_DATE_TIME ( #210, #42 ) ;
#154 = PRODUCT_DEFINITION_FORMATION_WITH_SPECIFIED_SOURCE ( 'ANY', '', #109, .NOT_KNOWN. ) ;
#155 =( NAMED_UNIT ( * ) PLANE_ANGLE_UNIT ( ) SI_UNIT ( $, .RADIAN. ) );
#156 = ADVANCED_FACE ( 'NONE', ( #82 ), #47, .F. ) ;
#157 = ORIENTED_EDGE ( 'NONE', *, *, #78, .F. ) ;
#158 = EDGE_LOOP ( 'NONE', ( #19 ) ) ;
#159 = AXIS2_PLACEMENT_3D ( 'NONE', #127, #37, #107 ) ;
#160 = EDGE_CURVE ( 'NONE', #96, #96, #212, .T. ) ;
#161 = AXIS2_PLACEMENT_3D ( 'NONE', #187, #216, #135 ) ;
#162 = APPLICATION_CONTEXT ( 'configuration controlled 3d designs of mechanical parts and assemblies' ) ;
#163 = PLANE ( 'NONE',  #22 ) ;
#164 = FACE_OUTER_BOUND ( 'NONE', #143, .T. ) ;
#165 = FACE_OUTER_BOUND ( 'NONE', #1, .T. ) ;
#166 = LOCAL_TIME ( 15, 47, 20.00000000000000000, #18 ) ;
#167 = DIRECTION ( 'NONE',  ( 3.491481338843133355E-15, -1.224646799147353207E-16, 1.000000000000000000 ) ) ;
#168 = FACE_OUTER_BOUND ( 'NONE', #176, .T. ) ;
#169 = DATE_TIME_ROLE ( 'creation_date' ) ;
#170 = CIRCLE ( 'NONE', #36, 0.6800000000000014921 ) ;
#171 = DATE_TIME_ROLE ( 'classification_date' ) ;
#172 = APPROVAL_STATUS ( 'not_yet_approved' ) ;
#173 = PERSON_AND_ORGANIZATION ( #28, #197 ) ;
#174 = AXIS2_PLACEMENT_3D ( 'NONE', #150, #61, #99 ) ;
#175 = DATE_AND_TIME ( #35, #166 ) ;
#176 = EDGE_LOOP ( 'NONE', ( #157 ) ) ;
#177 = APPROVAL_DATE_TIME ( #141, #181 ) ;
#178 = ORIENTED_EDGE ( 'NONE', *, *, #198, .F. ) ;
#179 = ORIENTED_EDGE ( 'NONE', *, *, #124, .F. ) ;
#180 = EDGE_LOOP ( 'NONE', ( #126 ) ) ;
#181 = APPROVAL ( #172, 'UNSPECIFIED' ) ;
#182 = CARTESIAN_POINT ( 'NONE',  ( 1.426567674234725889E-15, 0.6799999999999986056, 0.4085852209387447198 ) ) ;
#183 = APPROVAL_PERSON_ORGANIZATION ( #69, #131, #192 ) ;
#184 = CARTESIAN_POINT ( 'NONE',  ( 3.910459099504309989E-14, 0.6800000000000000488, 11.20000000000000107 ) ) ;
#185 = DIRECTION ( 'NONE',  ( -3.491481338843133355E-15, 1.224646799147353207E-16, -1.000000000000000000 ) ) ;
#186 = EDGE_CURVE ( 'NONE', #44, #44, #170, .T. ) ;
#187 = CARTESIAN_POINT ( 'NONE',  ( 3.952791061012192525E-14, -1.386452468387183963E-15, 11.32124355652981862 ) ) ;
#188 = APPROVAL_PERSON_ORGANIZATION ( #15, #181, #70 ) ;
#189 = DIRECTION ( 'NONE',  ( -3.491481338843133355E-15, 1.224646799147353207E-16, -1.000000000000000000 ) ) ;
#190 = CC_DESIGN_PERSON_AND_ORGANIZATION_ASSIGNMENT ( #222, #101, ( #84 ) ) ;
#191 = CARTESIAN_POINT ( 'NONE',  ( 0.0000000000000000000, 0.0000000000000000000, 0.0000000000000000000 ) ) ;
#192 = APPROVAL_ROLE ( '' ) ;
#193 = CIRCLE ( 'NONE', #174, 0.7500000000000000000 ) ;
#194 = MECHANICAL_CONTEXT ( 'NONE', #13, 'mechanical' ) ;
#195 = APPROVAL_STATUS ( 'not_yet_approved' ) ;
#196 = CC_DESIGN_PERSON_AND_ORGANIZATION_ASSIGNMENT ( #151, #50, ( #154 ) ) ;
#197 = ORGANIZATION ( 'UNSPECIFIED', 'UNSPECIFIED', '' ) ;
#198 = EDGE_CURVE ( 'NONE', #205, #205, #193, .T. ) ;
#199 = DIRECTION ( 'NONE',  ( -3.491481338843133355E-15, 1.224646799147353207E-16, -1.000000000000000000 ) ) ;
#200 = VERTEX_POINT ( 'NONE', #23 ) ;
#201 = CARTESIAN_POINT ( 'NONE',  ( 1.047444401652940007E-13, -3.673940397442059178E-15, 30.00000000000000000 ) ) ;
#202 = CARTESIAN_POINT ( 'NONE',  ( 3.910459099504309989E-14, -1.371604415045035710E-15, 11.20000000000000107 ) ) ;
#203 = DIRECTION ( 'NONE',  ( -5.664499836433058579E-31, -1.000000000000000000, -1.594414959537509885E-16 ) ) ;
#204 = CC_DESIGN_SECURITY_CLASSIFICATION ( #90, ( #154 ) ) ;
#205 = VERTEX_POINT ( 'NONE', #137 ) ;
#206 = COORDINATED_UNIVERSAL_TIME_OFFSET ( 1, 0, .AHEAD. ) ;
#207 = AXIS2_PLACEMENT_3D ( 'NONE', #136, #219, #65 ) ;
#208 = PERSON_AND_ORGANIZATION ( #28, #197 ) ;
#209 = AXIS2_PLACEMENT_3D ( 'NONE', #201, #185, #217 ) ;
#210 = DATE_AND_TIME ( #30, #223 ) ;
#211 = MANIFOLD_SOLID_BREP ( 'Corps-Déplacer/Copier1[2]', #12 ) ;
#212 = CIRCLE ( 'NONE', #161, 0.7499999999999977796 ) ;
#213 = FACE_OUTER_BOUND ( 'NONE', #180, .T. ) ;
#214 = MANIFOLD_SOLID_BREP ( 'Corps-Déplacer/Copier1[1]', #91 ) ;
#215 = FACE_OUTER_BOUND ( 'NONE', #21, .T. ) ;
#216 = DIRECTION ( 'NONE',  ( -3.491481338843133355E-15, 1.224646799147353207E-16, -1.000000000000000000 ) ) ;
#217 = DIRECTION ( 'NONE',  ( 0.0000000000000000000, 1.000000000000000000, 0.0000000000000000000 ) ) ;
#218 = DIRECTION ( 'NONE',  ( 3.491481338843133355E-15, -1.224646799147353207E-16, 1.000000000000000000 ) ) ;
#219 = DIRECTION ( 'NONE',  ( -3.491481338843133355E-15, 1.224646799147353207E-16, -1.000000000000000000 ) ) ;
#220 = APPROVAL_PERSON_ORGANIZATION ( #119, #42, #106 ) ;
#221 = SECURITY_CLASSIFICATION_LEVEL ( 'unclassified' ) ;
#222 = PERSON_AND_ORGANIZATION ( #28, #197 ) ;
#223 = LOCAL_TIME ( 15, 47, 20.00000000000000000, #86 ) ;
ENDSEC;
END-ISO-10303-21;
