ISO-10303-21;
HEADER;
FILE_DESCRIPTION (( 'STEP AP203' ),
    '1' );
FILE_NAME ('37024.step',
    '2021-10-07T13:47:19',
    ( '' ),
    ( '' ),
    'SwSTEP 2.0',
    'SolidWorks 2019',
    '' );
FILE_SCHEMA (( 'CONFIG_CONTROL_DESIGN' ));
ENDSEC;

DATA;
#1 = FACE_OUTER_BOUND ( 'NONE', #61, .T. ) ;
#2 = PERSON_AND_ORGANIZATION_ROLE ( 'design_owner' ) ;
#3 = CIRCLE ( 'NONE', #125, 0.6749999999999986011 ) ;
#4 = DIRECTION ( 'NONE',  ( 4.275831445896959482E-31, 1.000000000000000000, 1.224646799147353207E-16 ) ) ;
#5 = CARTESIAN_POINT ( 'NONE',  ( 0.0000000000000000000, 0.0000000000000000000, 0.0000000000000000000 ) ) ;
#6 = CARTESIAN_POINT ( 'NONE',  ( 3.910459099504308727E-14, 0.6749999999999976019, 11.19999999999999751 ) ) ;
#7 = DIRECTION ( 'NONE',  ( -3.491481338843133355E-15, 1.224646799147353207E-16, -1.000000000000000000 ) ) ;
#8 = AXIS2_PLACEMENT_3D ( 'NONE', #52, #156, #212 ) ;
#9 = ADVANCED_BREP_SHAPE_REPRESENTATION ( '37024', ( #36, #121, #51 ), #112 ) ;
#10 = EDGE_LOOP ( 'NONE', ( #38 ) ) ;
#11 = COORDINATED_UNIVERSAL_TIME_OFFSET ( 1, 0, .AHEAD. ) ;
#12 = AXIS2_PLACEMENT_3D ( 'NONE', #188, #60, #128 ) ;
#13 = PERSON_AND_ORGANIZATION ( #211, #134 ) ;
#14 = DIRECTION ( 'NONE',  ( 3.491481338843133355E-15, -1.224646799147353207E-16, 1.000000000000000000 ) ) ;
#15 = PERSON_AND_ORGANIZATION ( #211, #134 ) ;
#16 = PERSON_AND_ORGANIZATION ( #211, #134 ) ;
#17 = APPROVAL_PERSON_ORGANIZATION ( #13, #84, #46 ) ;
#18 = APPROVAL_STATUS ( 'not_yet_approved' ) ;
#19 = CC_DESIGN_DATE_AND_TIME_ASSIGNMENT ( #187, #137, ( #20 ) ) ;
#20 = PRODUCT_DEFINITION ( 'UNKNOWN', '', #192, #126 ) ;
#21 = CLOSED_SHELL ( 'NONE', ( #87, #34, #136, #200, #45 ) ) ;
#22 = ORIENTED_EDGE ( 'NONE', *, *, #186, .T. ) ;
#23 = PERSON_AND_ORGANIZATION_ROLE ( 'design_supplier' ) ;
#24 = ORIENTED_EDGE ( 'NONE', *, *, #57, .F. ) ;
#25 = CARTESIAN_POINT ( 'NONE',  ( 1.047444401652940007E-13, 4.124339402320053683E-33, 30.00000000000000000 ) ) ;
#26 = PLANE ( 'NONE',  #140 ) ;
#27 = CONICAL_SURFACE ( 'NONE', #75, 0.6749999999999986011, 1.029744258676649649 ) ;
#28 = SHAPE_DEFINITION_REPRESENTATION ( #103, #9 ) ;
#29 = DIRECTION ( 'NONE',  ( -3.491481338843133355E-15, 1.224646799147353207E-16, -1.000000000000000000 ) ) ;
#30 = EDGE_CURVE ( 'NONE', #101, #101, #71, .T. ) ;
#31 = DIRECTION ( 'NONE',  ( 3.491481338843133355E-15, -1.224646799147353207E-16, 1.000000000000000000 ) ) ;
#32 = DIRECTION ( 'NONE',  ( 0.0000000000000000000, 1.000000000000000000, 0.0000000000000000000 ) ) ;
#33 = LOCAL_TIME ( 15, 47, 19.00000000000000000, #189 ) ;
#34 = ADVANCED_FACE ( 'NONE', ( #130, #163 ), #177, .T. ) ;
#35 = AXIS2_PLACEMENT_3D ( 'NONE', #97, #66, #32 ) ;
#36 = MANIFOLD_SOLID_BREP ( 'Corps-Déplacer/Copier1[1]', #21 ) ;
#37 = EDGE_LOOP ( 'NONE', ( #117 ) ) ;
#38 = ORIENTED_EDGE ( 'NONE', *, *, #122, .T. ) ;
#39 = APPROVAL_DATE_TIME ( #65, #84 ) ;
#40 = CARTESIAN_POINT ( 'NONE',  ( 3.955814772548470661E-14, -1.387513043625908810E-15, 11.32990381056766438 ) ) ;
#41 = APPROVAL_STATUS ( 'not_yet_approved' ) ;
#42 = EDGE_LOOP ( 'NONE', ( #115 ) ) ;
#43 = APPLICATION_PROTOCOL_DEFINITION ( 'international standard', 'config_control_design', 1994, #150 ) ;
#44 = PLANE ( 'NONE',  #64 ) ;
#45 = ADVANCED_FACE ( 'NONE', ( #88 ), #44, .F. ) ;
#46 = APPROVAL_ROLE ( '' ) ;
#47 = FACE_OUTER_BOUND ( 'NONE', #37, .T. ) ;
#48 = FACE_BOUND ( 'NONE', #76, .T. ) ;
#49 = PERSON_AND_ORGANIZATION ( #211, #134 ) ;
#50 = DIRECTION ( 'NONE',  ( -3.491481338843133355E-15, 1.224646799147353207E-16, -1.000000000000000000 ) ) ;
#51 = AXIS2_PLACEMENT_3D ( 'NONE', #5, #155, #59 ) ;
#52 = CARTESIAN_POINT ( 'NONE',  ( 3.910459099504308727E-14, -1.371604415045035316E-15, 11.19999999999999751 ) ) ;
#53 = ADVANCED_FACE ( 'NONE', ( #73, #56 ), #146, .T. ) ;
#54 = AXIS2_PLACEMENT_3D ( 'NONE', #109, #108, #69 ) ;
#55 = DIRECTION ( 'NONE',  ( 0.0000000000000000000, 1.000000000000000000, 0.0000000000000000000 ) ) ;
#56 = FACE_OUTER_BOUND ( 'NONE', #217, .T. ) ;
#57 = EDGE_CURVE ( 'NONE', #145, #145, #157, .T. ) ;
#58 = APPROVAL_PERSON_ORGANIZATION ( #49, #220, #164 ) ;
#59 = DIRECTION ( 'NONE',  ( 1.000000000000000000, 0.0000000000000000000, 0.0000000000000000000 ) ) ;
#60 = DIRECTION ( 'NONE',  ( -3.491481338843133355E-15, 1.224646799147353207E-16, -1.000000000000000000 ) ) ;
#61 = EDGE_LOOP ( 'NONE', ( #133 ) ) ;
#62 =( NAMED_UNIT ( * ) SI_UNIT ( $, .STERADIAN. ) SOLID_ANGLE_UNIT ( ) );
#63 = DATE_AND_TIME ( #81, #153 ) ;
#64 = AXIS2_PLACEMENT_3D ( 'NONE', #25, #95, #165 ) ;
#65 = DATE_AND_TIME ( #98, #33 ) ;
#66 = DIRECTION ( 'NONE',  ( -3.491481338843133355E-15, 1.224646799147353207E-16, -1.000000000000000000 ) ) ;
#67 = FACE_OUTER_BOUND ( 'NONE', #178, .T. ) ;
#68 = LOCAL_TIME ( 15, 47, 19.00000000000000000, #154 ) ;
#69 = DIRECTION ( 'NONE',  ( -4.275831445896958607E-31, -1.000000000000000000, -1.224646799147353207E-16 ) ) ;
#70 = AXIS2_PLACEMENT_3D ( 'NONE', #209, #29, #158 ) ;
#71 = CIRCLE ( 'NONE', #12, 0.5500000000000001554 ) ;
#72 = UNCERTAINTY_MEASURE_WITH_UNIT (LENGTH_MEASURE( 1.000000000000000082E-05 ), #96, 'distance_accuracy_value', 'NONE');
#73 = FACE_OUTER_BOUND ( 'NONE', #169, .T. ) ;
#74 = CARTESIAN_POINT ( 'NONE',  ( 0.0000000000000000000, 0.0000000000000000000, 0.0000000000000000000 ) ) ;
#75 = AXIS2_PLACEMENT_3D ( 'NONE', #213, #31, #104 ) ;
#76 = EDGE_LOOP ( 'NONE', ( #147 ) ) ;
#77 = PERSON_AND_ORGANIZATION ( #211, #134 ) ;
#78 = DIRECTION ( 'NONE',  ( -3.491481338843133355E-15, 1.224646799147353207E-16, -1.000000000000000000 ) ) ;
#79 = VERTEX_POINT ( 'NONE', #94 ) ;
#80 = AXIS2_PLACEMENT_3D ( 'NONE', #119, #78, #55 ) ;
#81 = CALENDAR_DATE ( 2021, 7, 10 ) ;
#82 = APPROVAL_DATE_TIME ( #176, #197 ) ;
#83 = CC_DESIGN_APPROVAL ( #197, ( #144 ) ) ;
#84 = APPROVAL ( #208, 'UNSPECIFIED' ) ;
#85 = VERTEX_POINT ( 'NONE', #123 ) ;
#86 = AXIS2_PLACEMENT_3D ( 'NONE', #173, #50, #4 ) ;
#87 = ADVANCED_FACE ( 'NONE', ( #202 ), #26, .F. ) ;
#88 = FACE_OUTER_BOUND ( 'NONE', #199, .T. ) ;
#89 = ORIENTED_EDGE ( 'NONE', *, *, #57, .T. ) ;
#90 = MECHANICAL_CONTEXT ( 'NONE', #102, 'mechanical' ) ;
#91 = ORIENTED_EDGE ( 'NONE', *, *, #30, .F. ) ;
#92 = EDGE_CURVE ( 'NONE', #172, #172, #171, .T. ) ;
#93 = LOCAL_TIME ( 15, 47, 19.00000000000000000, #11 ) ;
#94 = CARTESIAN_POINT ( 'NONE',  ( 1.416078206041823211E-15, 0.6749999999999986011, 0.4055809178436068918 ) ) ;
#95 = DIRECTION ( 'NONE',  ( -3.491481338843133355E-15, 1.224646799147353207E-16, -1.000000000000000000 ) ) ;
#96 =( LENGTH_UNIT ( ) NAMED_UNIT ( * ) SI_UNIT ( .MILLI., .METRE. ) );
#97 = CARTESIAN_POINT ( 'NONE',  ( 1.040461438975253740E-13, -3.649447461459112464E-15, 29.80000000000000071 ) ) ;
#98 = CALENDAR_DATE ( 2021, 7, 10 ) ;
#99 = PRODUCT_RELATED_PRODUCT_CATEGORY ( 'detail', '', ( #191 ) ) ;
#100 = CC_DESIGN_PERSON_AND_ORGANIZATION_ASSIGNMENT ( #15, #2, ( #191 ) ) ;
#101 = VERTEX_POINT ( 'NONE', #159 ) ;
#102 = APPLICATION_CONTEXT ( 'configuration controlled 3d designs of mechanical parts and assemblies' ) ;
#103 = PRODUCT_DEFINITION_SHAPE ( 'NONE', 'NONE',  #20 ) ;
#104 = DIRECTION ( 'NONE',  ( -2.853229547240355186E-31, -1.000000000000000000, -1.606225440719269079E-16 ) ) ;
#105 = VERTEX_POINT ( 'NONE', #6 ) ;
#106 = CYLINDRICAL_SURFACE ( 'NONE', #86, 0.7499999999999988898 ) ;
#107 = CONICAL_SURFACE ( 'NONE', #70, 0.5500000000000001554, 0.7853981633974510546 ) ;
#108 = DIRECTION ( 'NONE',  ( 3.491481338843133355E-15, -1.224646799147353207E-16, 1.000000000000000000 ) ) ;
#109 = CARTESIAN_POINT ( 'NONE',  ( 3.910459099504308727E-14, 2.175040444925604726E-31, 11.19999999999999751 ) ) ;
#110 = LOCAL_TIME ( 15, 47, 19.00000000000000000, #183 ) ;
#111 = ORIENTED_EDGE ( 'NONE', *, *, #92, .T. ) ;
#112 =( GEOMETRIC_REPRESENTATION_CONTEXT ( 3 ) GLOBAL_UNCERTAINTY_ASSIGNED_CONTEXT ( ( #72 ) ) GLOBAL_UNIT_ASSIGNED_CONTEXT ( ( #96, #166, #62 ) ) REPRESENTATION_CONTEXT ( 'NONE', 'WORKASPACE' ) );
#113 = DIRECTION ( 'NONE',  ( 0.0000000000000000000, 1.000000000000000000, 0.0000000000000000000 ) ) ;
#114 = PERSON_AND_ORGANIZATION ( #211, #134 ) ;
#115 = ORIENTED_EDGE ( 'NONE', *, *, #179, .F. ) ;
#116 = APPROVAL_ROLE ( '' ) ;
#117 = ORIENTED_EDGE ( 'NONE', *, *, #92, .F. ) ;
#118 = PERSON_AND_ORGANIZATION ( #211, #134 ) ;
#119 = CARTESIAN_POINT ( 'NONE',  ( 3.955814772548470661E-14, -1.387513043625908810E-15, 11.32990381056766438 ) ) ;
#120 = CC_DESIGN_DATE_AND_TIME_ASSIGNMENT ( #148, #219, ( #144 ) ) ;
#121 = MANIFOLD_SOLID_BREP ( 'Corps-Déplacer/Copier1[2]', #216 ) ;
#122 = EDGE_CURVE ( 'NONE', #85, #85, #160, .T. ) ;
#123 = CARTESIAN_POINT ( 'NONE',  ( 1.040461438975253740E-13, 0.7499999999999963363, 29.80000000000000071 ) ) ;
#124 = CALENDAR_DATE ( 2021, 7, 10 ) ;
#125 = AXIS2_PLACEMENT_3D ( 'NONE', #193, #7, #196 ) ;
#126 = DESIGN_CONTEXT ( 'detailed design', #150, 'design' ) ;
#127 = CC_DESIGN_PERSON_AND_ORGANIZATION_ASSIGNMENT ( #118, #131, ( #20 ) ) ;
#128 = DIRECTION ( 'NONE',  ( 0.0000000000000000000, 1.000000000000000000, 0.0000000000000000000 ) ) ;
#129 = APPLICATION_PROTOCOL_DEFINITION ( 'international standard', 'config_control_design', 1994, #102 ) ;
#130 = FACE_BOUND ( 'NONE', #42, .T. ) ;
#131 = PERSON_AND_ORGANIZATION_ROLE ( 'creator' ) ;
#132 = DIRECTION ( 'NONE',  ( -4.275831445896958607E-31, -1.000000000000000000, -1.224646799147353207E-16 ) ) ;
#133 = ORIENTED_EDGE ( 'NONE', *, *, #122, .F. ) ;
#134 = ORGANIZATION ( 'UNSPECIFIED', 'UNSPECIFIED', '' ) ;
#135 = CALENDAR_DATE ( 2021, 7, 10 ) ;
#136 = ADVANCED_FACE ( 'NONE', ( #67, #138 ), #106, .T. ) ;
#137 = DATE_TIME_ROLE ( 'creation_date' ) ;
#138 = FACE_OUTER_BOUND ( 'NONE', #10, .T. ) ;
#139 = PLANE ( 'NONE',  #54 ) ;
#140 = AXIS2_PLACEMENT_3D ( 'NONE', #221, #14, #132 ) ;
#141 = CC_DESIGN_PERSON_AND_ORGANIZATION_ASSIGNMENT ( #77, #23, ( #192 ) ) ;
#142 = FACE_OUTER_BOUND ( 'NONE', #205, .T. ) ;
#143 = CC_DESIGN_PERSON_AND_ORGANIZATION_ASSIGNMENT ( #16, #151, ( #144 ) ) ;
#144 = SECURITY_CLASSIFICATION ( '', '', #170 ) ;
#145 = VERTEX_POINT ( 'NONE', #215 ) ;
#146 = CYLINDRICAL_SURFACE ( 'NONE', #161, 0.6749999999999988232 ) ;
#147 = ORIENTED_EDGE ( 'NONE', *, *, #30, .T. ) ;
#148 = DATE_AND_TIME ( #204, #93 ) ;
#149 = DIRECTION ( 'NONE',  ( -3.491481338843133355E-15, 1.224646799147353207E-16, -1.000000000000000000 ) ) ;
#150 = APPLICATION_CONTEXT ( 'configuration controlled 3d designs of mechanical parts and assemblies' ) ;
#151 = PERSON_AND_ORGANIZATION_ROLE ( 'classification_officer' ) ;
#152 = CARTESIAN_POINT ( 'NONE',  ( 3.910459099504308727E-14, -1.371604415045035316E-15, 11.19999999999999751 ) ) ;
#153 = LOCAL_TIME ( 15, 47, 19.00000000000000000, #190 ) ;
#154 = COORDINATED_UNIVERSAL_TIME_OFFSET ( 1, 0, .AHEAD. ) ;
#155 = DIRECTION ( 'NONE',  ( 0.0000000000000000000, 0.0000000000000000000, 1.000000000000000000 ) ) ;
#156 = DIRECTION ( 'NONE',  ( -3.491481338843133355E-15, 1.224646799147353207E-16, -1.000000000000000000 ) ) ;
#157 = CIRCLE ( 'NONE', #80, 0.7499999999999977796 ) ;
#158 = DIRECTION ( 'NONE',  ( 0.0000000000000000000, 1.000000000000000000, 0.0000000000000000000 ) ) ;
#159 = CARTESIAN_POINT ( 'NONE',  ( 1.047444401652940007E-13, 0.5499999999999964917, 30.00000000000000000 ) ) ;
#160 = CIRCLE ( 'NONE', #35, 0.7500000000000000000 ) ;
#161 = AXIS2_PLACEMENT_3D ( 'NONE', #74, #149, #167 ) ;
#162 = ORIENTED_EDGE ( 'NONE', *, *, #179, .T. ) ;
#163 = FACE_OUTER_BOUND ( 'NONE', #180, .T. ) ;
#164 = APPROVAL_ROLE ( '' ) ;
#165 = DIRECTION ( 'NONE',  ( 4.275831445896958607E-31, 1.000000000000000000, 1.224646799147353207E-16 ) ) ;
#166 =( NAMED_UNIT ( * ) PLANE_ANGLE_UNIT ( ) SI_UNIT ( $, .RADIAN. ) );
#167 = DIRECTION ( 'NONE',  ( 4.275831445896958607E-31, 1.000000000000000000, 1.224646799147353207E-16 ) ) ;
#168 = ADVANCED_FACE ( 'NONE', ( #47 ), #139, .T. ) ;
#169 = EDGE_LOOP ( 'NONE', ( #218 ) ) ;
#170 = SECURITY_CLASSIFICATION_LEVEL ( 'unclassified' ) ;
#171 = CIRCLE ( 'NONE', #195, 0.6749999999999990452 ) ;
#172 = VERTEX_POINT ( 'NONE', #194 ) ;
#173 = CARTESIAN_POINT ( 'NONE',  ( 0.0000000000000000000, 0.0000000000000000000, 0.0000000000000000000 ) ) ;
#174 = ADVANCED_FACE ( 'NONE', ( #142 ), #27, .T. ) ;
#175 = CC_DESIGN_PERSON_AND_ORGANIZATION_ASSIGNMENT ( #114, #181, ( #192 ) ) ;
#176 = DATE_AND_TIME ( #124, #68 ) ;
#177 = CONICAL_SURFACE ( 'NONE', #214, 0.7499999999999977796, 0.5235987755982914882 ) ;
#178 = EDGE_LOOP ( 'NONE', ( #24 ) ) ;
#179 = EDGE_CURVE ( 'NONE', #105, #105, #184, .T. ) ;
#180 = EDGE_LOOP ( 'NONE', ( #89 ) ) ;
#181 = PERSON_AND_ORGANIZATION_ROLE ( 'creator' ) ;
#182 = EDGE_LOOP ( 'NONE', ( #162 ) ) ;
#183 = COORDINATED_UNIVERSAL_TIME_OFFSET ( 1, 0, .AHEAD. ) ;
#184 = CIRCLE ( 'NONE', #8, 0.6749999999999990452 ) ;
#185 = DIRECTION ( 'NONE',  ( 0.0000000000000000000, -1.000000000000000000, 0.0000000000000000000 ) ) ;
#186 = EDGE_CURVE ( 'NONE', #79, #79, #3, .T. ) ;
#187 = DATE_AND_TIME ( #135, #110 ) ;
#188 = CARTESIAN_POINT ( 'NONE',  ( 1.047444401652940007E-13, -3.673940397442059178E-15, 30.00000000000000000 ) ) ;
#189 = COORDINATED_UNIVERSAL_TIME_OFFSET ( 1, 0, .AHEAD. ) ;
#190 = COORDINATED_UNIVERSAL_TIME_OFFSET ( 1, 0, .AHEAD. ) ;
#191 = PRODUCT ( '37024', '37024', '', ( #90 ) ) ;
#192 = PRODUCT_DEFINITION_FORMATION_WITH_SPECIFIED_SOURCE ( 'ANY', '', #191, .NOT_KNOWN. ) ;
#193 = CARTESIAN_POINT ( 'NONE',  ( 1.416078206041823014E-15, -4.966933728324186393E-17, 0.4055809178436067808 ) ) ;
#194 = CARTESIAN_POINT ( 'NONE',  ( 3.910459099504308727E-14, 0.6749999999999976019, 11.19999999999999751 ) ) ;
#195 = AXIS2_PLACEMENT_3D ( 'NONE', #152, #223, #113 ) ;
#196 = DIRECTION ( 'NONE',  ( 2.853229547240355186E-31, 1.000000000000000000, 1.606225440719269079E-16 ) ) ;
#197 = APPROVAL ( #41, 'UNSPECIFIED' ) ;
#198 = CC_DESIGN_SECURITY_CLASSIFICATION ( #144, ( #192 ) ) ;
#199 = EDGE_LOOP ( 'NONE', ( #91 ) ) ;
#200 = ADVANCED_FACE ( 'NONE', ( #1, #48 ), #107, .T. ) ;
#201 = APPROVAL_PERSON_ORGANIZATION ( #222, #197, #116 ) ;
#202 = FACE_OUTER_BOUND ( 'NONE', #182, .T. ) ;
#203 = APPROVAL_DATE_TIME ( #63, #220 ) ;
#204 = CALENDAR_DATE ( 2021, 7, 10 ) ;
#205 = EDGE_LOOP ( 'NONE', ( #22 ) ) ;
#206 = CC_DESIGN_APPROVAL ( #220, ( #20 ) ) ;
#207 = DIRECTION ( 'NONE',  ( 3.491481338843133355E-15, -1.224646799147353207E-16, 1.000000000000000000 ) ) ;
#208 = APPROVAL_STATUS ( 'not_yet_approved' ) ;
#209 = CARTESIAN_POINT ( 'NONE',  ( 1.047444401652940007E-13, -3.673940397442059178E-15, 30.00000000000000000 ) ) ;
#210 = CC_DESIGN_APPROVAL ( #84, ( #192 ) ) ;
#211 = PERSON ( 'UNSPECIFIED', 'UNSPECIFIED', 'UNSPECIFIED', ('UNSPECIFIED'), ('UNSPECIFIED'), ('UNSPECIFIED') ) ;
#212 = DIRECTION ( 'NONE',  ( 0.0000000000000000000, 1.000000000000000000, 0.0000000000000000000 ) ) ;
#213 = CARTESIAN_POINT ( 'NONE',  ( 1.416078206041823014E-15, -4.966933728324186393E-17, 0.4055809178436067808 ) ) ;
#214 = AXIS2_PLACEMENT_3D ( 'NONE', #40, #207, #185 ) ;
#215 = CARTESIAN_POINT ( 'NONE',  ( 3.955814772548470661E-14, 0.7499999999999963363, 11.32990381056766438 ) ) ;
#216 = CLOSED_SHELL ( 'NONE', ( #174, #53, #168 ) ) ;
#217 = EDGE_LOOP ( 'NONE', ( #111 ) ) ;
#218 = ORIENTED_EDGE ( 'NONE', *, *, #186, .F. ) ;
#219 = DATE_TIME_ROLE ( 'classification_date' ) ;
#220 = APPROVAL ( #18, 'UNSPECIFIED' ) ;
#221 = CARTESIAN_POINT ( 'NONE',  ( 3.910459099504308727E-14, 2.175040444925604726E-31, 11.19999999999999751 ) ) ;
#222 = PERSON_AND_ORGANIZATION ( #211, #134 ) ;
#223 = DIRECTION ( 'NONE',  ( -3.491481338843133355E-15, 1.224646799147353207E-16, -1.000000000000000000 ) ) ;
ENDSEC;
END-ISO-10303-21;
