ISO-10303-21;
HEADER;
FILE_DESCRIPTION (( 'STEP AP203' ),
    '1' );
FILE_NAME ('37022.step',
    '2021-10-07T13:47:19',
    ( '' ),
    ( '' ),
    'SwSTEP 2.0',
    'SolidWorks 2019',
    '' );
FILE_SCHEMA (( 'CONFIG_CONTROL_DESIGN' ));
ENDSEC;

DATA;
#1 = CIRCLE ( 'NONE', #70, 0.5500000000000001554 ) ;
#2 =( GEOMETRIC_REPRESENTATION_CONTEXT ( 3 ) GLOBAL_UNCERTAINTY_ASSIGNED_CONTEXT ( ( #83 ) ) GLOBAL_UNIT_ASSIGNED_CONTEXT ( ( #84, #140, #193 ) ) REPRESENTATION_CONTEXT ( 'NONE', 'WORKASPACE' ) );
#3 = EDGE_LOOP ( 'NONE', ( #158 ) ) ;
#4 = CARTESIAN_POINT ( 'NONE',  ( 1.395099269656008192E-15, -4.893349524941570565E-17, 0.3995723116533282382 ) ) ;
#5 = APPROVAL ( #221, 'UNSPECIFIED' ) ;
#6 = FACE_OUTER_BOUND ( 'NONE', #14, .T. ) ;
#7 = DIRECTION ( 'NONE',  ( 3.491481338843133355E-15, -1.224646799147353207E-16, 1.000000000000000000 ) ) ;
#8 = DIRECTION ( 'NONE',  ( 3.491481338843133355E-15, -1.224646799147353207E-16, 1.000000000000000000 ) ) ;
#9 = CLOSED_SHELL ( 'NONE', ( #54, #112, #115 ) ) ;
#10 = ORIENTED_EDGE ( 'NONE', *, *, #153, .F. ) ;
#11 = VERTEX_POINT ( 'NONE', #77 ) ;
#12 = SECURITY_CLASSIFICATION ( '', '', #145 ) ;
#13 = CARTESIAN_POINT ( 'NONE',  ( 0.0000000000000000000, 0.0000000000000000000, 0.0000000000000000000 ) ) ;
#14 = EDGE_LOOP ( 'NONE', ( #119 ) ) ;
#15 = CONICAL_SURFACE ( 'NONE', #36, 0.5500000000000001554, 0.7853981633974510546 ) ;
#16 = DIRECTION ( 'NONE',  ( -4.275831445896958607E-31, -1.000000000000000000, -1.224646799147353207E-16 ) ) ;
#17 = CARTESIAN_POINT ( 'NONE',  ( 3.910459099504309358E-14, 0.6649999999999937073, 11.19999999999999929 ) ) ;
#18 = CIRCLE ( 'NONE', #215, 0.7500000000000000000 ) ;
#19 = DATE_AND_TIME ( #210, #143 ) ;
#20 = CALENDAR_DATE ( 2021, 7, 10 ) ;
#21 = CC_DESIGN_APPROVAL ( #64, ( #12 ) ) ;
#22 = DATE_AND_TIME ( #162, #217 ) ;
#23 = DIRECTION ( 'NONE',  ( -3.491481338843133355E-15, 1.224646799147353207E-16, -1.000000000000000000 ) ) ;
#24 = AXIS2_PLACEMENT_3D ( 'NONE', #104, #34, #189 ) ;
#25 = PLANE ( 'NONE',  #126 ) ;
#26 = VERTEX_POINT ( 'NONE', #170 ) ;
#27 = VERTEX_POINT ( 'NONE', #17 ) ;
#28 = PERSON ( 'UNSPECIFIED', 'UNSPECIFIED', 'UNSPECIFIED', ('UNSPECIFIED'), ('UNSPECIFIED'), ('UNSPECIFIED') ) ;
#29 = FACE_OUTER_BOUND ( 'NONE', #95, .T. ) ;
#30 = APPLICATION_PROTOCOL_DEFINITION ( 'international standard', 'config_control_design', 1994, #101 ) ;
#31 = AXIS2_PLACEMENT_3D ( 'NONE', #13, #41, #114 ) ;
#32 = PERSON_AND_ORGANIZATION_ROLE ( 'creator' ) ;
#33 = COORDINATED_UNIVERSAL_TIME_OFFSET ( 1, 0, .AHEAD. ) ;
#34 = DIRECTION ( 'NONE',  ( 0.0000000000000000000, 0.0000000000000000000, 1.000000000000000000 ) ) ;
#35 = CIRCLE ( 'NONE', #138, 0.6649999999999938183 ) ;
#36 = AXIS2_PLACEMENT_3D ( 'NONE', #60, #65, #139 ) ;
#37 = CC_DESIGN_DATE_AND_TIME_ASSIGNMENT ( #163, #100, ( #127 ) ) ;
#38 = CARTESIAN_POINT ( 'NONE',  ( 3.961862195621028194E-14, -1.389634194103359884E-15, 11.34722431864336123 ) ) ;
#39 = FACE_OUTER_BOUND ( 'NONE', #196, .T. ) ;
#40 = EDGE_LOOP ( 'NONE', ( #191 ) ) ;
#41 = DIRECTION ( 'NONE',  ( -3.491481338843133355E-15, 1.224646799147353207E-16, -1.000000000000000000 ) ) ;
#42 = CIRCLE ( 'NONE', #177, 0.6649999999999951505 ) ;
#43 = CYLINDRICAL_SURFACE ( 'NONE', #31, 0.7499999999999988898 ) ;
#44 = CONICAL_SURFACE ( 'NONE', #88, 0.7499999999999977796, 0.5235987755982922653 ) ;
#45 = DIRECTION ( 'NONE',  ( 3.491481338843133355E-15, -1.224646799147353207E-16, 1.000000000000000000 ) ) ;
#46 = CYLINDRICAL_SURFACE ( 'NONE', #166, 0.6649999999999944844 ) ;
#47 = ORIENTED_EDGE ( 'NONE', *, *, #151, .F. ) ;
#48 = DESIGN_CONTEXT ( 'detailed design', #195, 'design' ) ;
#49 = PERSON_AND_ORGANIZATION ( #28, #132 ) ;
#50 = APPROVAL_DATE_TIME ( #91, #5 ) ;
#51 = CALENDAR_DATE ( 2021, 7, 10 ) ;
#52 = CIRCLE ( 'NONE', #111, 0.7499999999999977796 ) ;
#53 = SHAPE_DEFINITION_REPRESENTATION ( #148, #71 ) ;
#54 = ADVANCED_FACE ( 'NONE', ( #6 ), #169, .T. ) ;
#55 = EDGE_LOOP ( 'NONE', ( #180 ) ) ;
#56 = CARTESIAN_POINT ( 'NONE',  ( 1.047444401652940007E-13, -3.673940397442059178E-15, 30.00000000000000000 ) ) ;
#57 = DIRECTION ( 'NONE',  ( 0.0000000000000000000, 1.000000000000000000, 0.0000000000000000000 ) ) ;
#58 = APPROVAL ( #102, 'UNSPECIFIED' ) ;
#59 = AXIS2_PLACEMENT_3D ( 'NONE', #203, #94, #167 ) ;
#60 = CARTESIAN_POINT ( 'NONE',  ( 1.047444401652940007E-13, -3.673940397442059178E-15, 30.00000000000000000 ) ) ;
#61 = PRODUCT ( '37022', '37022', '', ( #220 ) ) ;
#62 = DIRECTION ( 'NONE',  ( 4.275831445896958607E-31, 1.000000000000000000, 1.224646799147353207E-16 ) ) ;
#63 = EDGE_LOOP ( 'NONE', ( #124 ) ) ;
#64 = APPROVAL ( #178, 'UNSPECIFIED' ) ;
#65 = DIRECTION ( 'NONE',  ( -3.491481338843133355E-15, 1.224646799147353207E-16, -1.000000000000000000 ) ) ;
#66 = CALENDAR_DATE ( 2021, 7, 10 ) ;
#67 = AXIS2_PLACEMENT_3D ( 'NONE', #4, #90, #135 ) ;
#68 = PERSON_AND_ORGANIZATION ( #28, #132 ) ;
#69 = CC_DESIGN_PERSON_AND_ORGANIZATION_ASSIGNMENT ( #68, #142, ( #12 ) ) ;
#70 = AXIS2_PLACEMENT_3D ( 'NONE', #56, #187, #121 ) ;
#71 = ADVANCED_BREP_SHAPE_REPRESENTATION ( '37022', ( #219, #120, #24 ), #2 ) ;
#72 = PERSON_AND_ORGANIZATION_ROLE ( 'design_supplier' ) ;
#73 = APPROVAL_PERSON_ORGANIZATION ( #49, #5, #108 ) ;
#74 = ADVANCED_FACE ( 'NONE', ( #136, #212 ), #44, .T. ) ;
#75 = CARTESIAN_POINT ( 'NONE',  ( 0.0000000000000000000, 0.0000000000000000000, 0.0000000000000000000 ) ) ;
#76 = FACE_BOUND ( 'NONE', #40, .T. ) ;
#77 = CARTESIAN_POINT ( 'NONE',  ( 1.047444401652940007E-13, 0.5499999999999964917, 30.00000000000000000 ) ) ;
#78 = CARTESIAN_POINT ( 'NONE',  ( 1.040461438975253740E-13, -3.649447461459112464E-15, 29.80000000000000071 ) ) ;
#79 = CC_DESIGN_DATE_AND_TIME_ASSIGNMENT ( #19, #206, ( #12 ) ) ;
#80 = ORIENTED_EDGE ( 'NONE', *, *, #86, .F. ) ;
#81 = FACE_OUTER_BOUND ( 'NONE', #63, .T. ) ;
#82 = EDGE_LOOP ( 'NONE', ( #110 ) ) ;
#83 = UNCERTAINTY_MEASURE_WITH_UNIT (LENGTH_MEASURE( 1.000000000000000082E-05 ), #84, 'distance_accuracy_value', 'NONE');
#84 =( LENGTH_UNIT ( ) NAMED_UNIT ( * ) SI_UNIT ( .MILLI., .METRE. ) );
#85 = EDGE_CURVE ( 'NONE', #154, #154, #35, .T. ) ;
#86 = EDGE_CURVE ( 'NONE', #26, #26, #52, .T. ) ;
#87 = PERSON_AND_ORGANIZATION_ROLE ( 'creator' ) ;
#88 = AXIS2_PLACEMENT_3D ( 'NONE', #38, #8, #182 ) ;
#89 = COORDINATED_UNIVERSAL_TIME_OFFSET ( 1, 0, .AHEAD. ) ;
#90 = DIRECTION ( 'NONE',  ( 3.491481338843133355E-15, -1.224646799147353207E-16, 1.000000000000000000 ) ) ;
#91 = DATE_AND_TIME ( #20, #173 ) ;
#92 = APPROVAL_PERSON_ORGANIZATION ( #125, #64, #128 ) ;
#93 = EDGE_LOOP ( 'NONE', ( #47 ) ) ;
#94 = DIRECTION ( 'NONE',  ( -3.491481338843133355E-15, 1.224646799147353207E-16, -1.000000000000000000 ) ) ;
#95 = EDGE_LOOP ( 'NONE', ( #116 ) ) ;
#96 = DIRECTION ( 'NONE',  ( -3.491481338843133355E-15, 1.224646799147353207E-16, -1.000000000000000000 ) ) ;
#97 = DIRECTION ( 'NONE',  ( -3.491481338843133355E-15, 1.224646799147353207E-16, -1.000000000000000000 ) ) ;
#98 = CARTESIAN_POINT ( 'NONE',  ( 3.961862195621028194E-14, -1.389634194103359884E-15, 11.34722431864336123 ) ) ;
#99 = DIRECTION ( 'NONE',  ( 4.275831445896958607E-31, 1.000000000000000000, 1.224646799147353207E-16 ) ) ;
#100 = DATE_TIME_ROLE ( 'creation_date' ) ;
#101 = APPLICATION_CONTEXT ( 'configuration controlled 3d designs of mechanical parts and assemblies' ) ;
#102 = APPROVAL_STATUS ( 'not_yet_approved' ) ;
#103 = CC_DESIGN_PERSON_AND_ORGANIZATION_ASSIGNMENT ( #188, #87, ( #127 ) ) ;
#104 = CARTESIAN_POINT ( 'NONE',  ( 0.0000000000000000000, 0.0000000000000000000, 0.0000000000000000000 ) ) ;
#105 = EDGE_LOOP ( 'NONE', ( #10 ) ) ;
#106 = COORDINATED_UNIVERSAL_TIME_OFFSET ( 1, 0, .AHEAD. ) ;
#107 = ORIENTED_EDGE ( 'NONE', *, *, #153, .T. ) ;
#108 = APPROVAL_ROLE ( '' ) ;
#109 = AXIS2_PLACEMENT_3D ( 'NONE', #152, #7, #130 ) ;
#110 = ORIENTED_EDGE ( 'NONE', *, *, #183, .F. ) ;
#111 = AXIS2_PLACEMENT_3D ( 'NONE', #98, #160, #57 ) ;
#112 = ADVANCED_FACE ( 'NONE', ( #81, #171 ), #46, .T. ) ;
#113 = FACE_OUTER_BOUND ( 'NONE', #93, .T. ) ;
#114 = DIRECTION ( 'NONE',  ( 4.275831445896959482E-31, 1.000000000000000000, 1.224646799147353207E-16 ) ) ;
#115 = ADVANCED_FACE ( 'NONE', ( #29 ), #199, .T. ) ;
#116 = ORIENTED_EDGE ( 'NONE', *, *, #202, .F. ) ;
#117 = CARTESIAN_POINT ( 'NONE',  ( 1.395099269656008192E-15, -4.893349524941570565E-17, 0.3995723116533282382 ) ) ;
#118 = CARTESIAN_POINT ( 'NONE',  ( 1.047444401652940007E-13, 4.124339402320053683E-33, 30.00000000000000000 ) ) ;
#119 = ORIENTED_EDGE ( 'NONE', *, *, #85, .T. ) ;
#120 = MANIFOLD_SOLID_BREP ( 'Corps-Déplacer/Copier1[2]', #9 ) ;
#121 = DIRECTION ( 'NONE',  ( 0.0000000000000000000, 1.000000000000000000, 0.0000000000000000000 ) ) ;
#122 = COORDINATED_UNIVERSAL_TIME_OFFSET ( 1, 0, .AHEAD. ) ;
#123 = DATE_AND_TIME ( #51, #133 ) ;
#124 = ORIENTED_EDGE ( 'NONE', *, *, #85, .F. ) ;
#125 = PERSON_AND_ORGANIZATION ( #28, #132 ) ;
#126 = AXIS2_PLACEMENT_3D ( 'NONE', #168, #45, #16 ) ;
#127 = PRODUCT_DEFINITION ( 'UNKNOWN', '', #204, #48 ) ;
#128 = APPROVAL_ROLE ( '' ) ;
#129 = ADVANCED_FACE ( 'NONE', ( #113 ), #200, .F. ) ;
#130 = DIRECTION ( 'NONE',  ( -4.275831445896958607E-31, -1.000000000000000000, -1.224646799147353207E-16 ) ) ;
#131 = DIRECTION ( 'NONE',  ( 0.0000000000000000000, 1.000000000000000000, 0.0000000000000000000 ) ) ;
#132 = ORGANIZATION ( 'UNSPECIFIED', 'UNSPECIFIED', '' ) ;
#133 = LOCAL_TIME ( 15, 47, 19.00000000000000000, #175 ) ;
#134 = VERTEX_POINT ( 'NONE', #185 ) ;
#135 = DIRECTION ( 'NONE',  ( -2.896135254717674786E-31, -1.000000000000000000, -1.630379206745134586E-16 ) ) ;
#136 = FACE_BOUND ( 'NONE', #82, .T. ) ;
#137 = FACE_OUTER_BOUND ( 'NONE', #197, .T. ) ;
#138 = AXIS2_PLACEMENT_3D ( 'NONE', #117, #96, #216 ) ;
#139 = DIRECTION ( 'NONE',  ( 0.0000000000000000000, 1.000000000000000000, 0.0000000000000000000 ) ) ;
#140 =( NAMED_UNIT ( * ) PLANE_ANGLE_UNIT ( ) SI_UNIT ( $, .RADIAN. ) );
#141 = EDGE_LOOP ( 'NONE', ( #107 ) ) ;
#142 = PERSON_AND_ORGANIZATION_ROLE ( 'classification_officer' ) ;
#143 = LOCAL_TIME ( 15, 47, 19.00000000000000000, #106 ) ;
#144 = PERSON_AND_ORGANIZATION ( #28, #132 ) ;
#145 = SECURITY_CLASSIFICATION_LEVEL ( 'unclassified' ) ;
#146 = ADVANCED_FACE ( 'NONE', ( #137, #157 ), #43, .T. ) ;
#147 = CC_DESIGN_APPROVAL ( #5, ( #127 ) ) ;
#148 = PRODUCT_DEFINITION_SHAPE ( 'NONE', 'NONE',  #127 ) ;
#149 = APPROVAL_DATE_TIME ( #22, #64 ) ;
#150 = CC_DESIGN_PERSON_AND_ORGANIZATION_ASSIGNMENT ( #222, #32, ( #204 ) ) ;
#151 = EDGE_CURVE ( 'NONE', #11, #11, #1, .T. ) ;
#152 = CARTESIAN_POINT ( 'NONE',  ( 3.910459099504309358E-14, 4.986701277350619208E-33, 11.19999999999999929 ) ) ;
#153 = EDGE_CURVE ( 'NONE', #155, #155, #18, .T. ) ;
#154 = VERTEX_POINT ( 'NONE', #213 ) ;
#155 = VERTEX_POINT ( 'NONE', #214 ) ;
#156 = CC_DESIGN_PERSON_AND_ORGANIZATION_ASSIGNMENT ( #176, #72, ( #204 ) ) ;
#157 = FACE_OUTER_BOUND ( 'NONE', #141, .T. ) ;
#158 = ORIENTED_EDGE ( 'NONE', *, *, #86, .T. ) ;
#159 = CC_DESIGN_SECURITY_CLASSIFICATION ( #12, ( #204 ) ) ;
#160 = DIRECTION ( 'NONE',  ( -3.491481338843133355E-15, 1.224646799147353207E-16, -1.000000000000000000 ) ) ;
#161 = PERSON_AND_ORGANIZATION ( #28, #132 ) ;
#162 = CALENDAR_DATE ( 2021, 7, 10 ) ;
#163 = DATE_AND_TIME ( #66, #172 ) ;
#164 = APPROVAL_PERSON_ORGANIZATION ( #161, #58, #223 ) ;
#165 = CC_DESIGN_PERSON_AND_ORGANIZATION_ASSIGNMENT ( #144, #208, ( #61 ) ) ;
#166 = AXIS2_PLACEMENT_3D ( 'NONE', #75, #97, #62 ) ;
#167 = DIRECTION ( 'NONE',  ( 0.0000000000000000000, 1.000000000000000000, 0.0000000000000000000 ) ) ;
#168 = CARTESIAN_POINT ( 'NONE',  ( 3.910459099504309358E-14, 4.986701277350619208E-33, 11.19999999999999929 ) ) ;
#169 = CONICAL_SURFACE ( 'NONE', #67, 0.6649999999999938183, 1.029744258676649649 ) ;
#170 = CARTESIAN_POINT ( 'NONE',  ( 3.961862195621028194E-14, 0.7499999999999963363, 11.34722431864336123 ) ) ;
#171 = FACE_OUTER_BOUND ( 'NONE', #55, .T. ) ;
#172 = LOCAL_TIME ( 15, 47, 19.00000000000000000, #122 ) ;
#173 = LOCAL_TIME ( 15, 47, 19.00000000000000000, #33 ) ;
#174 = DIRECTION ( 'NONE',  ( 0.0000000000000000000, 1.000000000000000000, 0.0000000000000000000 ) ) ;
#175 = COORDINATED_UNIVERSAL_TIME_OFFSET ( 1, 0, .AHEAD. ) ;
#176 = PERSON_AND_ORGANIZATION ( #28, #132 ) ;
#177 = AXIS2_PLACEMENT_3D ( 'NONE', #201, #23, #131 ) ;
#178 = APPROVAL_STATUS ( 'not_yet_approved' ) ;
#179 = CLOSED_SHELL ( 'NONE', ( #186, #74, #146, #190, #129 ) ) ;
#180 = ORIENTED_EDGE ( 'NONE', *, *, #202, .T. ) ;
#181 = AXIS2_PLACEMENT_3D ( 'NONE', #118, #184, #99 ) ;
#182 = DIRECTION ( 'NONE',  ( 0.0000000000000000000, -1.000000000000000000, 0.0000000000000000000 ) ) ;
#183 = EDGE_CURVE ( 'NONE', #134, #134, #42, .T. ) ;
#184 = DIRECTION ( 'NONE',  ( -3.491481338843133355E-15, 1.224646799147353207E-16, -1.000000000000000000 ) ) ;
#185 = CARTESIAN_POINT ( 'NONE',  ( 3.910459099504309358E-14, 0.6649999999999937073, 11.19999999999999929 ) ) ;
#186 = ADVANCED_FACE ( 'NONE', ( #39 ), #25, .F. ) ;
#187 = DIRECTION ( 'NONE',  ( -3.491481338843133355E-15, 1.224646799147353207E-16, -1.000000000000000000 ) ) ;
#188 = PERSON_AND_ORGANIZATION ( #28, #132 ) ;
#189 = DIRECTION ( 'NONE',  ( 1.000000000000000000, 0.0000000000000000000, 0.0000000000000000000 ) ) ;
#190 = ADVANCED_FACE ( 'NONE', ( #218, #76 ), #15, .T. ) ;
#191 = ORIENTED_EDGE ( 'NONE', *, *, #151, .T. ) ;
#192 = APPROVAL_DATE_TIME ( #123, #58 ) ;
#193 =( NAMED_UNIT ( * ) SI_UNIT ( $, .STERADIAN. ) SOLID_ANGLE_UNIT ( ) );
#194 = PRODUCT_RELATED_PRODUCT_CATEGORY ( 'detail', '', ( #61 ) ) ;
#195 = APPLICATION_CONTEXT ( 'configuration controlled 3d designs of mechanical parts and assemblies' ) ;
#196 = EDGE_LOOP ( 'NONE', ( #207 ) ) ;
#197 = EDGE_LOOP ( 'NONE', ( #80 ) ) ;
#198 = DIRECTION ( 'NONE',  ( -3.491481338843133355E-15, 1.224646799147353207E-16, -1.000000000000000000 ) ) ;
#199 = PLANE ( 'NONE',  #109 ) ;
#200 = PLANE ( 'NONE',  #181 ) ;
#201 = CARTESIAN_POINT ( 'NONE',  ( 3.910459099504309358E-14, -1.371604415045035513E-15, 11.19999999999999929 ) ) ;
#202 = EDGE_CURVE ( 'NONE', #27, #27, #211, .T. ) ;
#203 = CARTESIAN_POINT ( 'NONE',  ( 3.910459099504309358E-14, -1.371604415045035513E-15, 11.19999999999999929 ) ) ;
#204 = PRODUCT_DEFINITION_FORMATION_WITH_SPECIFIED_SOURCE ( 'ANY', '', #61, .NOT_KNOWN. ) ;
#205 = APPLICATION_PROTOCOL_DEFINITION ( 'international standard', 'config_control_design', 1994, #195 ) ;
#206 = DATE_TIME_ROLE ( 'classification_date' ) ;
#207 = ORIENTED_EDGE ( 'NONE', *, *, #183, .T. ) ;
#208 = PERSON_AND_ORGANIZATION_ROLE ( 'design_owner' ) ;
#209 = CC_DESIGN_APPROVAL ( #58, ( #204 ) ) ;
#210 = CALENDAR_DATE ( 2021, 7, 10 ) ;
#211 = CIRCLE ( 'NONE', #59, 0.6649999999999951505 ) ;
#212 = FACE_OUTER_BOUND ( 'NONE', #3, .T. ) ;
#213 = CARTESIAN_POINT ( 'NONE',  ( 1.395099269656008390E-15, 0.6649999999999938183, 0.3995723116533283492 ) ) ;
#214 = CARTESIAN_POINT ( 'NONE',  ( 1.040461438975253740E-13, 0.7499999999999963363, 29.80000000000000071 ) ) ;
#215 = AXIS2_PLACEMENT_3D ( 'NONE', #78, #198, #174 ) ;
#216 = DIRECTION ( 'NONE',  ( 2.896135254717674786E-31, 1.000000000000000000, 1.630379206745134586E-16 ) ) ;
#217 = LOCAL_TIME ( 15, 47, 19.00000000000000000, #89 ) ;
#218 = FACE_OUTER_BOUND ( 'NONE', #105, .T. ) ;
#219 = MANIFOLD_SOLID_BREP ( 'Corps-Déplacer/Copier1[1]', #179 ) ;
#220 = MECHANICAL_CONTEXT ( 'NONE', #101, 'mechanical' ) ;
#221 = APPROVAL_STATUS ( 'not_yet_approved' ) ;
#222 = PERSON_AND_ORGANIZATION ( #28, #132 ) ;
#223 = APPROVAL_ROLE ( '' ) ;
ENDSEC;
END-ISO-10303-21;
