ISO-10303-21;
HEADER;
FILE_DESCRIPTION (( 'STEP AP203' ),
    '1' );
FILE_NAME ('37021.step',
    '2021-10-07T13:47:18',
    ( '' ),
    ( '' ),
    'SwSTEP 2.0',
    'SolidWorks 2019',
    '' );
FILE_SCHEMA (( 'CONFIG_CONTROL_DESIGN' ));
ENDSEC;

DATA;
#1 = ADVANCED_FACE ( 'NONE', ( #109 ), #178, .T. ) ;
#2 = CIRCLE ( 'NONE', #165, 0.7499999999999975575 ) ;
#3 = LOCAL_TIME ( 15, 47, 18.00000000000000000, #218 ) ;
#4 = EDGE_LOOP ( 'NONE', ( #56 ) ) ;
#5 = APPROVAL_PERSON_ORGANIZATION ( #41, #74, #202 ) ;
#6 = DATE_AND_TIME ( #199, #98 ) ;
#7 = CC_DESIGN_DATE_AND_TIME_ASSIGNMENT ( #96, #156, ( #69 ) ) ;
#8 = PERSON_AND_ORGANIZATION ( #208, #206 ) ;
#9 = APPROVAL_DATE_TIME ( #6, #88 ) ;
#10 = CARTESIAN_POINT ( 'NONE',  ( 3.491481338843133355E-14, 4.949207282784075915E-33, 10.00000000000000000 ) ) ;
#11 = APPROVAL_PERSON_ORGANIZATION ( #106, #148, #154 ) ;
#12 = FACE_OUTER_BOUND ( 'NONE', #198, .T. ) ;
#13 = CALENDAR_DATE ( 2021, 7, 10 ) ;
#14 = DIRECTION ( 'NONE',  ( -3.491481338843133355E-15, 1.224646799147353207E-16, -1.000000000000000000 ) ) ;
#15 = CARTESIAN_POINT ( 'NONE',  ( 3.491481338843133355E-14, 0.6599999999999939249, 10.00000000000000000 ) ) ;
#16 = CARTESIAN_POINT ( 'NONE',  ( 3.545908146496129695E-14, -1.243737153444402278E-15, 10.15588457268120415 ) ) ;
#17 = CARTESIAN_POINT ( 'NONE',  ( 1.047444401652940007E-13, 0.5499999999999964917, 30.00000000000000000 ) ) ;
#18 = AXIS2_PLACEMENT_3D ( 'NONE', #184, #185, #93 ) ;
#19 = VERTEX_POINT ( 'NONE', #52 ) ;
#20 = AXIS2_PLACEMENT_3D ( 'NONE', #65, #14, #100 ) ;
#21 = LOCAL_TIME ( 15, 47, 18.00000000000000000, #190 ) ;
#22 = AXIS2_PLACEMENT_3D ( 'NONE', #196, #118, #55 ) ;
#23 = ORIENTED_EDGE ( 'NONE', *, *, #207, .T. ) ;
#24 = ADVANCED_FACE ( 'NONE', ( #71, #214 ), #33, .T. ) ;
#25 = DIRECTION ( 'NONE',  ( 4.275831445896958607E-31, 1.000000000000000000, 1.224646799147353207E-16 ) ) ;
#26 = CALENDAR_DATE ( 2021, 7, 10 ) ;
#27 = APPLICATION_CONTEXT ( 'configuration controlled 3d designs of mechanical parts and assemblies' ) ;
#28 = ADVANCED_FACE ( 'NONE', ( #173 ), #48, .T. ) ;
#29 = DIRECTION ( 'NONE',  ( 3.491481338843133355E-15, -1.224646799147353207E-16, 1.000000000000000000 ) ) ;
#30 = DIRECTION ( 'NONE',  ( -3.491481338843133355E-15, 1.224646799147353207E-16, -1.000000000000000000 ) ) ;
#31 = CC_DESIGN_PERSON_AND_ORGANIZATION_ASSIGNMENT ( #8, #58, ( #215 ) ) ;
#32 = DIRECTION ( 'NONE',  ( 0.0000000000000000000, 1.000000000000000000, 0.0000000000000000000 ) ) ;
#33 = CONICAL_SURFACE ( 'NONE', #138, 0.7499999999999975575, 0.5235987755982942637 ) ;
#34 = VERTEX_POINT ( 'NONE', #17 ) ;
#35 = EDGE_LOOP ( 'NONE', ( #166 ) ) ;
#36 = LOCAL_TIME ( 15, 47, 18.00000000000000000, #113 ) ;
#37 = AXIS2_PLACEMENT_3D ( 'NONE', #91, #170, #32 ) ;
#38 = EDGE_LOOP ( 'NONE', ( #73 ) ) ;
#39 = EDGE_LOOP ( 'NONE', ( #125 ) ) ;
#40 = SECURITY_CLASSIFICATION_LEVEL ( 'unclassified' ) ;
#41 = PERSON_AND_ORGANIZATION ( #208, #206 ) ;
#42 = DATE_AND_TIME ( #85, #3 ) ;
#43 = CLOSED_SHELL ( 'NONE', ( #1, #186, #28 ) ) ;
#44 = VERTEX_POINT ( 'NONE', #53 ) ;
#45 = AXIS2_PLACEMENT_3D ( 'NONE', #80, #157, #66 ) ;
#46 = DIRECTION ( 'NONE',  ( -4.275831445896958607E-31, -1.000000000000000000, -1.224646799147353207E-16 ) ) ;
#47 = SHAPE_DEFINITION_REPRESENTATION ( #158, #108 ) ;
#48 = PLANE ( 'NONE',  #94 ) ;
#49 = CC_DESIGN_SECURITY_CLASSIFICATION ( #69, ( #215 ) ) ;
#50 = PERSON_AND_ORGANIZATION ( #208, #206 ) ;
#51 = DESIGN_CONTEXT ( 'detailed design', #167, 'design' ) ;
#52 = CARTESIAN_POINT ( 'NONE',  ( 3.545908146496129695E-14, 0.7499999999999963363, 10.15588457268120415 ) ) ;
#53 = CARTESIAN_POINT ( 'NONE',  ( 1.040461438975253740E-13, 0.7499999999999963363, 29.80000000000000071 ) ) ;
#54 = CARTESIAN_POINT ( 'NONE',  ( 3.545908146496129695E-14, -1.243737153444402278E-15, 10.15588457268120415 ) ) ;
#55 = DIRECTION ( 'NONE',  ( 0.0000000000000000000, 1.000000000000000000, 0.0000000000000000000 ) ) ;
#56 = ORIENTED_EDGE ( 'NONE', *, *, #207, .F. ) ;
#57 = ORIENTED_EDGE ( 'NONE', *, *, #152, .F. ) ;
#58 = PERSON_AND_ORGANIZATION_ROLE ( 'design_supplier' ) ;
#59 = ORIENTED_EDGE ( 'NONE', *, *, #210, .F. ) ;
#60 = CYLINDRICAL_SURFACE ( 'NONE', #120, 0.6599999999999944800 ) ;
#61 = PERSON_AND_ORGANIZATION ( #208, #206 ) ;
#62 = VERTEX_POINT ( 'NONE', #205 ) ;
#63 = FACE_OUTER_BOUND ( 'NONE', #89, .T. ) ;
#64 = FACE_OUTER_BOUND ( 'NONE', #38, .T. ) ;
#65 = CARTESIAN_POINT ( 'NONE',  ( 1.047444401652940007E-13, -3.673940397442059178E-15, 30.00000000000000000 ) ) ;
#66 = DIRECTION ( 'NONE',  ( 1.000000000000000000, 0.0000000000000000000, 0.0000000000000000000 ) ) ;
#67 = ADVANCED_FACE ( 'NONE', ( #63 ), #189, .F. ) ;
#68 = PRODUCT_DEFINITION ( 'UNKNOWN', '', #215, #51 ) ;
#69 = SECURITY_CLASSIFICATION ( '', '', #40 ) ;
#70 = AXIS2_PLACEMENT_3D ( 'NONE', #171, #121, #162 ) ;
#71 = FACE_BOUND ( 'NONE', #105, .T. ) ;
#72 = CC_DESIGN_APPROVAL ( #88, ( #68 ) ) ;
#73 = ORIENTED_EDGE ( 'NONE', *, *, #86, .F. ) ;
#74 = APPROVAL ( #129, 'UNSPECIFIED' ) ;
#75 = EDGE_CURVE ( 'NONE', #34, #34, #183, .T. ) ;
#76 = FACE_OUTER_BOUND ( 'NONE', #104, .T. ) ;
#77 = PERSON_AND_ORGANIZATION_ROLE ( 'creator' ) ;
#78 = DIRECTION ( 'NONE',  ( 2.918075673314021039E-31, 1.000000000000000000, 8.213652821859958982E-17 ) ) ;
#79 = APPROVAL_DATE_TIME ( #110, #74 ) ;
#80 = CARTESIAN_POINT ( 'NONE',  ( 0.0000000000000000000, 0.0000000000000000000, 0.0000000000000000000 ) ) ;
#81 = DIRECTION ( 'NONE',  ( -4.275831445896958607E-31, -1.000000000000000000, -1.224646799147353207E-16 ) ) ;
#82 = PERSON_AND_ORGANIZATION_ROLE ( 'design_owner' ) ;
#83 =( LENGTH_UNIT ( ) NAMED_UNIT ( * ) SI_UNIT ( .MILLI., .METRE. ) );
#84 = ADVANCED_FACE ( 'NONE', ( #213, #137 ), #97, .T. ) ;
#85 = CALENDAR_DATE ( 2021, 7, 10 ) ;
#86 = EDGE_CURVE ( 'NONE', #19, #19, #2, .T. ) ;
#87 = ORIENTED_EDGE ( 'NONE', *, *, #86, .T. ) ;
#88 = APPROVAL ( #193, 'UNSPECIFIED' ) ;
#89 = EDGE_LOOP ( 'NONE', ( #127 ) ) ;
#90 = DATE_AND_TIME ( #13, #21 ) ;
#91 = CARTESIAN_POINT ( 'NONE',  ( 1.040461438975253740E-13, -3.649447461459112464E-15, 29.80000000000000071 ) ) ;
#92 = MANIFOLD_SOLID_BREP ( 'Corps-Déplacer/Copier1[2]', #43 ) ;
#93 = DIRECTION ( 'NONE',  ( -2.918075673314021039E-31, -1.000000000000000000, -8.213652821859958982E-17 ) ) ;
#94 = AXIS2_PLACEMENT_3D ( 'NONE', #10, #29, #46 ) ;
#95 = APPLICATION_PROTOCOL_DEFINITION ( 'international standard', 'config_control_design', 1994, #27 ) ;
#96 = DATE_AND_TIME ( #26, #180 ) ;
#97 = CONICAL_SURFACE ( 'NONE', #20, 0.5500000000000001554, 0.7853981633974510546 ) ;
#98 = LOCAL_TIME ( 15, 47, 18.00000000000000000, #101 ) ;
#99 = FACE_OUTER_BOUND ( 'NONE', #146, .T. ) ;
#100 = DIRECTION ( 'NONE',  ( 0.0000000000000000000, 1.000000000000000000, 0.0000000000000000000 ) ) ;
#101 = COORDINATED_UNIVERSAL_TIME_OFFSET ( 1, 0, .AHEAD. ) ;
#102 = PERSON_AND_ORGANIZATION ( #208, #206 ) ;
#103 = CC_DESIGN_PERSON_AND_ORGANIZATION_ASSIGNMENT ( #102, #82, ( #216 ) ) ;
#104 = EDGE_LOOP ( 'NONE', ( #57 ) ) ;
#105 = EDGE_LOOP ( 'NONE', ( #164 ) ) ;
#106 = PERSON_AND_ORGANIZATION ( #208, #206 ) ;
#107 = CARTESIAN_POINT ( 'NONE',  ( 1.047444401652940007E-13, 4.124339402320053683E-33, 30.00000000000000000 ) ) ;
#108 = ADVANCED_BREP_SHAPE_REPRESENTATION ( '37021', ( #168, #92, #45 ), #179 ) ;
#109 = FACE_OUTER_BOUND ( 'NONE', #39, .T. ) ;
#110 = DATE_AND_TIME ( #169, #36 ) ;
#111 = CARTESIAN_POINT ( 'NONE',  ( 0.0000000000000000000, 0.0000000000000000000, 0.0000000000000000000 ) ) ;
#112 = DIRECTION ( 'NONE',  ( 0.0000000000000000000, -1.000000000000000000, 0.0000000000000000000 ) ) ;
#113 = COORDINATED_UNIVERSAL_TIME_OFFSET ( 1, 0, .AHEAD. ) ;
#114 = CC_DESIGN_DATE_AND_TIME_ASSIGNMENT ( #42, #134, ( #68 ) ) ;
#115 = APPROVAL_STATUS ( 'not_yet_approved' ) ;
#116 = CARTESIAN_POINT ( 'NONE',  ( 1.384609801463106304E-15, 0.6599999999999938138, 0.3965680085581905212 ) ) ;
#117 = VERTEX_POINT ( 'NONE', #116 ) ;
#118 = DIRECTION ( 'NONE',  ( -3.491481338843133355E-15, 1.224646799147353207E-16, -1.000000000000000000 ) ) ;
#119 = VERTEX_POINT ( 'NONE', #15 ) ;
#120 = AXIS2_PLACEMENT_3D ( 'NONE', #145, #201, #172 ) ;
#121 = DIRECTION ( 'NONE',  ( -3.491481338843133355E-15, 1.224646799147353207E-16, -1.000000000000000000 ) ) ;
#122 = UNCERTAINTY_MEASURE_WITH_UNIT (LENGTH_MEASURE( 1.000000000000000082E-05 ), #83, 'distance_accuracy_value', 'NONE');
#123 = DIRECTION ( 'NONE',  ( 3.491481338843133355E-15, -1.224646799147353207E-16, 1.000000000000000000 ) ) ;
#124 = AXIS2_PLACEMENT_3D ( 'NONE', #141, #195, #181 ) ;
#125 = ORIENTED_EDGE ( 'NONE', *, *, #152, .T. ) ;
#126 = ORIENTED_EDGE ( 'NONE', *, *, #210, .T. ) ;
#127 = ORIENTED_EDGE ( 'NONE', *, *, #128, .T. ) ;
#128 = EDGE_CURVE ( 'NONE', #119, #119, #222, .T. ) ;
#129 = APPROVAL_STATUS ( 'not_yet_approved' ) ;
#130 = CC_DESIGN_PERSON_AND_ORGANIZATION_ASSIGNMENT ( #61, #77, ( #215 ) ) ;
#131 = DIRECTION ( 'NONE',  ( -3.491481338843133355E-15, 1.224646799147353207E-16, -1.000000000000000000 ) ) ;
#132 = PERSON_AND_ORGANIZATION_ROLE ( 'classification_officer' ) ;
#133 = APPROVAL_PERSON_ORGANIZATION ( #50, #88, #140 ) ;
#134 = DATE_TIME_ROLE ( 'creation_date' ) ;
#135 = PERSON_AND_ORGANIZATION ( #208, #206 ) ;
#136 = PERSON_AND_ORGANIZATION_ROLE ( 'creator' ) ;
#137 = FACE_BOUND ( 'NONE', #35, .T. ) ;
#138 = AXIS2_PLACEMENT_3D ( 'NONE', #54, #123, #112 ) ;
#139 = CC_DESIGN_APPROVAL ( #148, ( #215 ) ) ;
#140 = APPROVAL_ROLE ( '' ) ;
#141 = CARTESIAN_POINT ( 'NONE',  ( 3.491481338843133355E-14, -1.224646799147353256E-15, 10.00000000000000000 ) ) ;
#142 =( NAMED_UNIT ( * ) PLANE_ANGLE_UNIT ( ) SI_UNIT ( $, .RADIAN. ) );
#143 = EDGE_LOOP ( 'NONE', ( #87 ) ) ;
#144 = PRODUCT_RELATED_PRODUCT_CATEGORY ( 'detail', '', ( #216 ) ) ;
#145 = CARTESIAN_POINT ( 'NONE',  ( 0.0000000000000000000, 0.0000000000000000000, 0.0000000000000000000 ) ) ;
#146 = EDGE_LOOP ( 'NONE', ( #217 ) ) ;
#147 = FACE_OUTER_BOUND ( 'NONE', #149, .T. ) ;
#148 = APPROVAL ( #115, 'UNSPECIFIED' ) ;
#149 = EDGE_LOOP ( 'NONE', ( #126 ) ) ;
#150 = APPROVAL_DATE_TIME ( #90, #148 ) ;
#151 = AXIS2_PLACEMENT_3D ( 'NONE', #163, #221, #78 ) ;
#152 = EDGE_CURVE ( 'NONE', #117, #117, #194, .T. ) ;
#153 = ADVANCED_FACE ( 'NONE', ( #99 ), #209, .F. ) ;
#154 = APPROVAL_ROLE ( '' ) ;
#155 = CIRCLE ( 'NONE', #37, 0.7500000000000000000 ) ;
#156 = DATE_TIME_ROLE ( 'classification_date' ) ;
#157 = DIRECTION ( 'NONE',  ( 0.0000000000000000000, 0.0000000000000000000, 1.000000000000000000 ) ) ;
#158 = PRODUCT_DEFINITION_SHAPE ( 'NONE', 'NONE',  #68 ) ;
#159 = APPLICATION_PROTOCOL_DEFINITION ( 'international standard', 'config_control_design', 1994, #167 ) ;
#160 = DIRECTION ( 'NONE',  ( -3.491481338843133355E-15, 1.224646799147353207E-16, -1.000000000000000000 ) ) ;
#161 = CC_DESIGN_PERSON_AND_ORGANIZATION_ASSIGNMENT ( #135, #136, ( #68 ) ) ;
#162 = DIRECTION ( 'NONE',  ( 0.0000000000000000000, 1.000000000000000000, 0.0000000000000000000 ) ) ;
#163 = CARTESIAN_POINT ( 'NONE',  ( 1.384609801463106106E-15, -4.856557423250281756E-17, 0.3965680085581904657 ) ) ;
#164 = ORIENTED_EDGE ( 'NONE', *, *, #128, .F. ) ;
#165 = AXIS2_PLACEMENT_3D ( 'NONE', #16, #30, #220 ) ;
#166 = ORIENTED_EDGE ( 'NONE', *, *, #75, .T. ) ;
#167 = APPLICATION_CONTEXT ( 'configuration controlled 3d designs of mechanical parts and assemblies' ) ;
#168 = MANIFOLD_SOLID_BREP ( 'Corps-Déplacer/Copier1[1]', #187 ) ;
#169 = CALENDAR_DATE ( 2021, 7, 10 ) ;
#170 = DIRECTION ( 'NONE',  ( -3.491481338843133355E-15, 1.224646799147353207E-16, -1.000000000000000000 ) ) ;
#171 = CARTESIAN_POINT ( 'NONE',  ( 1.047444401652940007E-13, -3.673940397442059178E-15, 30.00000000000000000 ) ) ;
#172 = DIRECTION ( 'NONE',  ( 4.275831445896957731E-31, 1.000000000000000000, 1.224646799147353207E-16 ) ) ;
#173 = FACE_OUTER_BOUND ( 'NONE', #4, .T. ) ;
#174 = CARTESIAN_POINT ( 'NONE',  ( 3.491481338843133355E-14, 4.949207282784075915E-33, 10.00000000000000000 ) ) ;
#175 = CC_DESIGN_APPROVAL ( #74, ( #69 ) ) ;
#176 = AXIS2_PLACEMENT_3D ( 'NONE', #107, #131, #25 ) ;
#177 = DIRECTION ( 'NONE',  ( 3.491481338843133355E-15, -1.224646799147353207E-16, 1.000000000000000000 ) ) ;
#178 = CONICAL_SURFACE ( 'NONE', #18, 0.6599999999999938138, 1.029744258676649649 ) ;
#179 =( GEOMETRIC_REPRESENTATION_CONTEXT ( 3 ) GLOBAL_UNCERTAINTY_ASSIGNED_CONTEXT ( ( #122 ) ) GLOBAL_UNIT_ASSIGNED_CONTEXT ( ( #83, #142, #212 ) ) REPRESENTATION_CONTEXT ( 'NONE', 'WORKASPACE' ) );
#180 = LOCAL_TIME ( 15, 47, 18.00000000000000000, #191 ) ;
#181 = DIRECTION ( 'NONE',  ( 0.0000000000000000000, 1.000000000000000000, 0.0000000000000000000 ) ) ;
#182 = MECHANICAL_CONTEXT ( 'NONE', #27, 'mechanical' ) ;
#183 = CIRCLE ( 'NONE', #70, 0.5500000000000001554 ) ;
#184 = CARTESIAN_POINT ( 'NONE',  ( 1.384609801463106106E-15, -4.856557423250281756E-17, 0.3965680085581904657 ) ) ;
#185 = DIRECTION ( 'NONE',  ( 3.491481338843133355E-15, -1.224646799147353207E-16, 1.000000000000000000 ) ) ;
#186 = ADVANCED_FACE ( 'NONE', ( #76, #12 ), #60, .T. ) ;
#187 = CLOSED_SHELL ( 'NONE', ( #67, #24, #192, #84, #153 ) ) ;
#188 = CC_DESIGN_PERSON_AND_ORGANIZATION_ASSIGNMENT ( #204, #132, ( #69 ) ) ;
#189 = PLANE ( 'NONE',  #200 ) ;
#190 = COORDINATED_UNIVERSAL_TIME_OFFSET ( 1, 0, .AHEAD. ) ;
#191 = COORDINATED_UNIVERSAL_TIME_OFFSET ( 1, 0, .AHEAD. ) ;
#192 = ADVANCED_FACE ( 'NONE', ( #64, #147 ), #203, .T. ) ;
#193 = APPROVAL_STATUS ( 'not_yet_approved' ) ;
#194 = CIRCLE ( 'NONE', #151, 0.6599999999999938138 ) ;
#195 = DIRECTION ( 'NONE',  ( -3.491481338843133355E-15, 1.224646799147353207E-16, -1.000000000000000000 ) ) ;
#196 = CARTESIAN_POINT ( 'NONE',  ( 3.491481338843133355E-14, -1.224646799147353256E-15, 10.00000000000000000 ) ) ;
#197 = EDGE_LOOP ( 'NONE', ( #59 ) ) ;
#198 = EDGE_LOOP ( 'NONE', ( #23 ) ) ;
#199 = CALENDAR_DATE ( 2021, 7, 10 ) ;
#200 = AXIS2_PLACEMENT_3D ( 'NONE', #174, #177, #81 ) ;
#201 = DIRECTION ( 'NONE',  ( -3.491481338843133355E-15, 1.224646799147353207E-16, -1.000000000000000000 ) ) ;
#202 = APPROVAL_ROLE ( '' ) ;
#203 = CYLINDRICAL_SURFACE ( 'NONE', #211, 0.7499999999999986677 ) ;
#204 = PERSON_AND_ORGANIZATION ( #208, #206 ) ;
#205 = CARTESIAN_POINT ( 'NONE',  ( 3.491481338843133355E-14, 0.6599999999999939249, 10.00000000000000000 ) ) ;
#206 = ORGANIZATION ( 'UNSPECIFIED', 'UNSPECIFIED', '' ) ;
#207 = EDGE_CURVE ( 'NONE', #62, #62, #219, .T. ) ;
#208 = PERSON ( 'UNSPECIFIED', 'UNSPECIFIED', 'UNSPECIFIED', ('UNSPECIFIED'), ('UNSPECIFIED'), ('UNSPECIFIED') ) ;
#209 = PLANE ( 'NONE',  #176 ) ;
#210 = EDGE_CURVE ( 'NONE', #44, #44, #155, .T. ) ;
#211 = AXIS2_PLACEMENT_3D ( 'NONE', #111, #160, #223 ) ;
#212 =( NAMED_UNIT ( * ) SI_UNIT ( $, .STERADIAN. ) SOLID_ANGLE_UNIT ( ) );
#213 = FACE_OUTER_BOUND ( 'NONE', #197, .T. ) ;
#214 = FACE_OUTER_BOUND ( 'NONE', #143, .T. ) ;
#215 = PRODUCT_DEFINITION_FORMATION_WITH_SPECIFIED_SOURCE ( 'ANY', '', #216, .NOT_KNOWN. ) ;
#216 = PRODUCT ( '37021', '37021', '', ( #182 ) ) ;
#217 = ORIENTED_EDGE ( 'NONE', *, *, #75, .F. ) ;
#218 = COORDINATED_UNIVERSAL_TIME_OFFSET ( 1, 0, .AHEAD. ) ;
#219 = CIRCLE ( 'NONE', #22, 0.6599999999999951461 ) ;
#220 = DIRECTION ( 'NONE',  ( 0.0000000000000000000, 1.000000000000000000, 0.0000000000000000000 ) ) ;
#221 = DIRECTION ( 'NONE',  ( -3.491481338843133355E-15, 1.224646799147353207E-16, -1.000000000000000000 ) ) ;
#222 = CIRCLE ( 'NONE', #124, 0.6599999999999951461 ) ;
#223 = DIRECTION ( 'NONE',  ( 4.275831445896959482E-31, 1.000000000000000000, 1.224646799147353207E-16 ) ) ;
ENDSEC;
END-ISO-10303-21;
