ISO-10303-21;
HEADER;
FILE_DESCRIPTION (( 'STEP AP203' ),
    '1' );
FILE_NAME ('37020.step',
    '2021-10-07T13:47:17',
    ( '' ),
    ( '' ),
    'SwSTEP 2.0',
    'SolidWorks 2019',
    '' );
FILE_SCHEMA (( 'CONFIG_CONTROL_DESIGN' ));
ENDSEC;

DATA;
#1 = MECHANICAL_CONTEXT ( 'NONE', #149, 'mechanical' ) ;
#2 = PERSON_AND_ORGANIZATION ( #164, #90 ) ;
#3 = APPROVAL_STATUS ( 'not_yet_approved' ) ;
#4 = PRODUCT ( '37020', '37020', '', ( #1 ) ) ;
#5 = CARTESIAN_POINT ( 'NONE',  ( 1.374120333270214276E-15, 0.6549999999999988054, 0.3935637054630556908 ) ) ;
#6 = CC_DESIGN_SECURITY_CLASSIFICATION ( #204, ( #50 ) ) ;
#7 = EDGE_LOOP ( 'NONE', ( #199 ) ) ;
#8 = APPROVAL_ROLE ( '' ) ;
#9 = EDGE_LOOP ( 'NONE', ( #76 ) ) ;
#10 = APPROVAL ( #3, 'UNSPECIFIED' ) ;
#11 = ORIENTED_EDGE ( 'NONE', *, *, #36, .T. ) ;
#12 = UNCERTAINTY_MEASURE_WITH_UNIT (LENGTH_MEASURE( 1.000000000000000082E-05 ), #210, 'distance_accuracy_value', 'NONE');
#13 = DIRECTION ( 'NONE',  ( 2.940351060133189720E-31, 1.000000000000000000, 8.276352461721422562E-17 ) ) ;
#14 = CC_DESIGN_APPROVAL ( #166, ( #204 ) ) ;
#15 = DIRECTION ( 'NONE',  ( -2.940351060133189720E-31, -1.000000000000000000, -8.276352461721422562E-17 ) ) ;
#16 = FACE_OUTER_BOUND ( 'NONE', #112, .T. ) ;
#17 = PLANE ( 'NONE',  #21 ) ;
#18 = CC_DESIGN_APPROVAL ( #10, ( #50 ) ) ;
#19 = FACE_BOUND ( 'NONE', #197, .T. ) ;
#20 = CARTESIAN_POINT ( 'NONE',  ( 0.0000000000000000000, 0.0000000000000000000, 0.0000000000000000000 ) ) ;
#21 = AXIS2_PLACEMENT_3D ( 'NONE', #203, #86, #54 ) ;
#22 = AXIS2_PLACEMENT_3D ( 'NONE', #154, #135, #55 ) ;
#23 = PERSON_AND_ORGANIZATION ( #164, #90 ) ;
#24 = COORDINATED_UNIVERSAL_TIME_OFFSET ( 1, 0, .AHEAD. ) ;
#25 = CC_DESIGN_DATE_AND_TIME_ASSIGNMENT ( #165, #78, ( #204 ) ) ;
#26 = PRODUCT_DEFINITION_SHAPE ( 'NONE', 'NONE',  #215 ) ;
#27 = DIRECTION ( 'NONE',  ( 0.0000000000000000000, 0.0000000000000000000, 1.000000000000000000 ) ) ;
#28 = CIRCLE ( 'NONE', #34, 0.6550000000000001377 ) ;
#29 = LOCAL_TIME ( 15, 47, 17.00000000000000000, #158 ) ;
#30 = ADVANCED_FACE ( 'NONE', ( #178 ), #221, .T. ) ;
#31 = ORIENTED_EDGE ( 'NONE', *, *, #143, .T. ) ;
#32 = COORDINATED_UNIVERSAL_TIME_OFFSET ( 1, 0, .AHEAD. ) ;
#33 = CARTESIAN_POINT ( 'NONE',  ( 1.374120333270214079E-15, -4.819765321559028076E-17, 0.3935637054630556353 ) ) ;
#34 = AXIS2_PLACEMENT_3D ( 'NONE', #153, #116, #121 ) ;
#35 = DIRECTION ( 'NONE',  ( 3.491481338843133355E-15, -1.224646799147353207E-16, 1.000000000000000000 ) ) ;
#36 = EDGE_CURVE ( 'NONE', #133, #133, #212, .T. ) ;
#37 = FACE_OUTER_BOUND ( 'NONE', #47, .T. ) ;
#38 = DESIGN_CONTEXT ( 'detailed design', #146, 'design' ) ;
#39 = DIRECTION ( 'NONE',  ( 4.275831445896958607E-31, 1.000000000000000000, 1.224646799147353207E-16 ) ) ;
#40 = DIRECTION ( 'NONE',  ( 0.0000000000000000000, 1.000000000000000000, 0.0000000000000000000 ) ) ;
#41 = CIRCLE ( 'NONE', #209, 0.5500000000000001554 ) ;
#42 = PERSON_AND_ORGANIZATION ( #164, #90 ) ;
#43 = PERSON_AND_ORGANIZATION_ROLE ( 'creator' ) ;
#44 = PERSON_AND_ORGANIZATION_ROLE ( 'design_owner' ) ;
#45 = CC_DESIGN_PERSON_AND_ORGANIZATION_ASSIGNMENT ( #155, #44, ( #4 ) ) ;
#46 = AXIS2_PLACEMENT_3D ( 'NONE', #82, #152, #69 ) ;
#47 = EDGE_LOOP ( 'NONE', ( #160 ) ) ;
#48 = PERSON_AND_ORGANIZATION ( #164, #90 ) ;
#49 = CALENDAR_DATE ( 2021, 7, 10 ) ;
#50 = PRODUCT_DEFINITION_FORMATION_WITH_SPECIFIED_SOURCE ( 'ANY', '', #4, .NOT_KNOWN. ) ;
#51 = DIRECTION ( 'NONE',  ( 0.0000000000000000000, 1.000000000000000000, 0.0000000000000000000 ) ) ;
#52 = DIRECTION ( 'NONE',  ( -3.491481338843133355E-15, 1.224646799147353207E-16, -1.000000000000000000 ) ) ;
#53 = CC_DESIGN_DATE_AND_TIME_ASSIGNMENT ( #190, #156, ( #215 ) ) ;
#54 = DIRECTION ( 'NONE',  ( -4.275831445896958607E-31, -1.000000000000000000, -1.224646799147353207E-16 ) ) ;
#55 = DIRECTION ( 'NONE',  ( 0.0000000000000000000, 1.000000000000000000, 0.0000000000000000000 ) ) ;
#56 = DIRECTION ( 'NONE',  ( -3.491481338843133355E-15, 1.224646799147353207E-16, -1.000000000000000000 ) ) ;
#57 = PERSON_AND_ORGANIZATION_ROLE ( 'creator' ) ;
#58 = CARTESIAN_POINT ( 'NONE',  ( 1.040461438975253740E-13, 0.7499999999999963363, 29.80000000000000071 ) ) ;
#59 = CALENDAR_DATE ( 2021, 7, 10 ) ;
#60 = EDGE_LOOP ( 'NONE', ( #109 ) ) ;
#61 = CALENDAR_DATE ( 2021, 7, 10 ) ;
#62 = EDGE_LOOP ( 'NONE', ( #142 ) ) ;
#63 = CC_DESIGN_PERSON_AND_ORGANIZATION_ASSIGNMENT ( #48, #111, ( #204 ) ) ;
#64 = AXIS2_PLACEMENT_3D ( 'NONE', #206, #56, #39 ) ;
#65 = DIRECTION ( 'NONE',  ( -3.491481338843133355E-15, 1.224646799147353207E-16, -1.000000000000000000 ) ) ;
#66 = DIRECTION ( 'NONE',  ( 0.0000000000000000000, -1.000000000000000000, 0.0000000000000000000 ) ) ;
#67 = CARTESIAN_POINT ( 'NONE',  ( 3.491481338843133986E-14, -1.224646799147353454E-15, 10.00000000000000178 ) ) ;
#68 = FACE_OUTER_BOUND ( 'NONE', #9, .T. ) ;
#69 = DIRECTION ( 'NONE',  ( 4.275831445896959482E-31, 1.000000000000000000, 1.224646799147353207E-16 ) ) ;
#70 = PERSON_AND_ORGANIZATION ( #164, #90 ) ;
#71 = COORDINATED_UNIVERSAL_TIME_OFFSET ( 1, 0, .AHEAD. ) ;
#72 = LOCAL_TIME ( 15, 47, 17.00000000000000000, #104 ) ;
#73 = APPLICATION_PROTOCOL_DEFINITION ( 'international standard', 'config_control_design', 1994, #149 ) ;
#74 = EDGE_LOOP ( 'NONE', ( #11 ) ) ;
#75 = CC_DESIGN_PERSON_AND_ORGANIZATION_ASSIGNMENT ( #23, #108, ( #50 ) ) ;
#76 = ORIENTED_EDGE ( 'NONE', *, *, #143, .F. ) ;
#77 = EDGE_CURVE ( 'NONE', #184, #184, #28, .T. ) ;
#78 = DATE_TIME_ROLE ( 'classification_date' ) ;
#79 = FACE_OUTER_BOUND ( 'NONE', #74, .T. ) ;
#80 = FACE_OUTER_BOUND ( 'NONE', #60, .T. ) ;
#81 = ADVANCED_FACE ( 'NONE', ( #16, #80 ), #98, .T. ) ;
#82 = CARTESIAN_POINT ( 'NONE',  ( 0.0000000000000000000, 0.0000000000000000000, 0.0000000000000000000 ) ) ;
#83 = MANIFOLD_SOLID_BREP ( 'Corps-Déplacer/Copier1[2]', #94 ) ;
#84 = DIRECTION ( 'NONE',  ( 0.0000000000000000000, 1.000000000000000000, 0.0000000000000000000 ) ) ;
#85 = EDGE_CURVE ( 'NONE', #93, #93, #168, .T. ) ;
#86 = DIRECTION ( 'NONE',  ( 3.491481338843133355E-15, -1.224646799147353207E-16, 1.000000000000000000 ) ) ;
#87 = APPROVAL_STATUS ( 'not_yet_approved' ) ;
#88 = VERTEX_POINT ( 'NONE', #58 ) ;
#89 = ADVANCED_FACE ( 'NONE', ( #134 ), #17, .F. ) ;
#90 = ORGANIZATION ( 'UNSPECIFIED', 'UNSPECIFIED', '' ) ;
#91 = CARTESIAN_POINT ( 'NONE',  ( 3.491481338843133986E-14, 0.6549999999999989164, 10.00000000000000178 ) ) ;
#92 = MANIFOLD_SOLID_BREP ( 'Corps-Déplacer/Copier1[1]', #193 ) ;
#93 = VERTEX_POINT ( 'NONE', #91 ) ;
#94 = CLOSED_SHELL ( 'NONE', ( #30, #81, #105 ) ) ;
#95 = APPROVAL_PERSON_ORGANIZATION ( #70, #113, #136 ) ;
#96 = PRODUCT_RELATED_PRODUCT_CATEGORY ( 'detail', '', ( #4 ) ) ;
#97 = DIRECTION ( 'NONE',  ( -3.491481338843133355E-15, 1.224646799147353207E-16, -1.000000000000000000 ) ) ;
#98 = CYLINDRICAL_SURFACE ( 'NONE', #208, 0.6549999999999994715 ) ;
#99 = ADVANCED_BREP_SHAPE_REPRESENTATION ( '37020', ( #92, #83, #110 ), #141 ) ;
#100 = CARTESIAN_POINT ( 'NONE',  ( 1.374120333270214079E-15, -4.819765321559028076E-17, 0.3935637054630556353 ) ) ;
#101 = ADVANCED_FACE ( 'NONE', ( #223, #37 ), #172, .T. ) ;
#102 = FACE_OUTER_BOUND ( 'NONE', #214, .T. ) ;
#103 = CC_DESIGN_APPROVAL ( #113, ( #215 ) ) ;
#104 = COORDINATED_UNIVERSAL_TIME_OFFSET ( 1, 0, .AHEAD. ) ;
#105 = ADVANCED_FACE ( 'NONE', ( #187 ), #167, .T. ) ;
#106 = VERTEX_POINT ( 'NONE', #5 ) ;
#107 = AXIS2_PLACEMENT_3D ( 'NONE', #220, #183, #122 ) ;
#108 = PERSON_AND_ORGANIZATION_ROLE ( 'design_supplier' ) ;
#109 = ORIENTED_EDGE ( 'NONE', *, *, #77, .T. ) ;
#110 = AXIS2_PLACEMENT_3D ( 'NONE', #20, #27, #173 ) ;
#111 = PERSON_AND_ORGANIZATION_ROLE ( 'classification_officer' ) ;
#112 = EDGE_LOOP ( 'NONE', ( #213 ) ) ;
#113 = APPROVAL ( #87, 'UNSPECIFIED' ) ;
#114 = AXIS2_PLACEMENT_3D ( 'NONE', #119, #52, #170 ) ;
#115 = CONICAL_SURFACE ( 'NONE', #189, 0.5500000000000001554, 0.7853981633974510546 ) ;
#116 = DIRECTION ( 'NONE',  ( -3.491481338843133355E-15, 1.224646799147353207E-16, -1.000000000000000000 ) ) ;
#117 = PLANE ( 'NONE',  #64 ) ;
#118 = SHAPE_DEFINITION_REPRESENTATION ( #26, #99 ) ;
#119 = CARTESIAN_POINT ( 'NONE',  ( 3.548931858032404044E-14, -1.244797728683126139E-15, 10.16454482671904103 ) ) ;
#120 = ADVANCED_FACE ( 'NONE', ( #68 ), #117, .F. ) ;
#121 = DIRECTION ( 'NONE',  ( 0.0000000000000000000, 1.000000000000000000, 0.0000000000000000000 ) ) ;
#122 = DIRECTION ( 'NONE',  ( -4.275831445896958607E-31, -1.000000000000000000, -1.224646799147353207E-16 ) ) ;
#123 = APPROVAL_DATE_TIME ( #207, #113 ) ;
#124 = LOCAL_TIME ( 15, 47, 17.00000000000000000, #24 ) ;
#125 =( NAMED_UNIT ( * ) SI_UNIT ( $, .STERADIAN. ) SOLID_ANGLE_UNIT ( ) );
#126 = APPROVAL_DATE_TIME ( #211, #10 ) ;
#127 = APPROVAL_ROLE ( '' ) ;
#128 = APPROVAL_PERSON_ORGANIZATION ( #42, #10, #127 ) ;
#129 = ORIENTED_EDGE ( 'NONE', *, *, #139, .F. ) ;
#130 = ORIENTED_EDGE ( 'NONE', *, *, #36, .F. ) ;
#131 = CIRCLE ( 'NONE', #22, 0.7500000000000000000 ) ;
#132 = CARTESIAN_POINT ( 'NONE',  ( 1.047444401652940007E-13, -3.673940397442059178E-15, 30.00000000000000000 ) ) ;
#133 = VERTEX_POINT ( 'NONE', #202 ) ;
#134 = FACE_OUTER_BOUND ( 'NONE', #62, .T. ) ;
#135 = DIRECTION ( 'NONE',  ( -3.491481338843133355E-15, 1.224646799147353207E-16, -1.000000000000000000 ) ) ;
#136 = APPROVAL_ROLE ( '' ) ;
#137 = CALENDAR_DATE ( 2021, 7, 10 ) ;
#138 = CARTESIAN_POINT ( 'NONE',  ( 1.047444401652940007E-13, 0.5499999999999964917, 30.00000000000000000 ) ) ;
#139 = EDGE_CURVE ( 'NONE', #88, #88, #131, .T. ) ;
#140 = CARTESIAN_POINT ( 'NONE',  ( 3.491481338843133986E-14, 0.6549999999999989164, 10.00000000000000178 ) ) ;
#141 =( GEOMETRIC_REPRESENTATION_CONTEXT ( 3 ) GLOBAL_UNCERTAINTY_ASSIGNED_CONTEXT ( ( #12 ) ) GLOBAL_UNIT_ASSIGNED_CONTEXT ( ( #210, #195, #125 ) ) REPRESENTATION_CONTEXT ( 'NONE', 'WORKASPACE' ) );
#142 = ORIENTED_EDGE ( 'NONE', *, *, #85, .T. ) ;
#143 = EDGE_CURVE ( 'NONE', #174, #174, #41, .T. ) ;
#144 = ORIENTED_EDGE ( 'NONE', *, *, #77, .F. ) ;
#145 = ORIENTED_EDGE ( 'NONE', *, *, #85, .F. ) ;
#146 = APPLICATION_CONTEXT ( 'configuration controlled 3d designs of mechanical parts and assemblies' ) ;
#147 = AXIS2_PLACEMENT_3D ( 'NONE', #67, #151, #84 ) ;
#148 = LOCAL_TIME ( 15, 47, 17.00000000000000000, #32 ) ;
#149 = APPLICATION_CONTEXT ( 'configuration controlled 3d designs of mechanical parts and assemblies' ) ;
#150 = CARTESIAN_POINT ( 'NONE',  ( 3.548931858032404044E-14, -1.244797728683126139E-15, 10.16454482671904103 ) ) ;
#151 = DIRECTION ( 'NONE',  ( -3.491481338843133355E-15, 1.224646799147353207E-16, -1.000000000000000000 ) ) ;
#152 = DIRECTION ( 'NONE',  ( -3.491481338843133355E-15, 1.224646799147353207E-16, -1.000000000000000000 ) ) ;
#153 = CARTESIAN_POINT ( 'NONE',  ( 3.491481338843133986E-14, -1.224646799147353454E-15, 10.00000000000000178 ) ) ;
#154 = CARTESIAN_POINT ( 'NONE',  ( 1.040461438975253740E-13, -3.649447461459112464E-15, 29.80000000000000071 ) ) ;
#155 = PERSON_AND_ORGANIZATION ( #164, #90 ) ;
#156 = DATE_TIME_ROLE ( 'creation_date' ) ;
#157 = ADVANCED_FACE ( 'NONE', ( #102, #19 ), #115, .T. ) ;
#158 = COORDINATED_UNIVERSAL_TIME_OFFSET ( 1, 0, .AHEAD. ) ;
#159 = CONICAL_SURFACE ( 'NONE', #185, 0.7499999999999975575, 0.5235987755982971503 ) ;
#160 = ORIENTED_EDGE ( 'NONE', *, *, #139, .T. ) ;
#161 = CC_DESIGN_PERSON_AND_ORGANIZATION_ASSIGNMENT ( #192, #43, ( #50 ) ) ;
#162 = APPROVAL_STATUS ( 'not_yet_approved' ) ;
#163 = APPROVAL_DATE_TIME ( #216, #166 ) ;
#164 = PERSON ( 'UNSPECIFIED', 'UNSPECIFIED', 'UNSPECIFIED', ('UNSPECIFIED'), ('UNSPECIFIED'), ('UNSPECIFIED') ) ;
#165 = DATE_AND_TIME ( #49, #29 ) ;
#166 = APPROVAL ( #162, 'UNSPECIFIED' ) ;
#167 = PLANE ( 'NONE',  #107 ) ;
#168 = CIRCLE ( 'NONE', #147, 0.6550000000000001377 ) ;
#169 = DIRECTION ( 'NONE',  ( 3.491481338843133355E-15, -1.224646799147353207E-16, 1.000000000000000000 ) ) ;
#170 = DIRECTION ( 'NONE',  ( 0.0000000000000000000, 1.000000000000000000, 0.0000000000000000000 ) ) ;
#171 = AXIS2_PLACEMENT_3D ( 'NONE', #33, #97, #13 ) ;
#172 = CYLINDRICAL_SURFACE ( 'NONE', #46, 0.7499999999999986677 ) ;
#173 = DIRECTION ( 'NONE',  ( 1.000000000000000000, 0.0000000000000000000, 0.0000000000000000000 ) ) ;
#174 = VERTEX_POINT ( 'NONE', #138 ) ;
#175 = SECURITY_CLASSIFICATION_LEVEL ( 'unclassified' ) ;
#176 = EDGE_CURVE ( 'NONE', #106, #106, #198, .T. ) ;
#177 = EDGE_LOOP ( 'NONE', ( #130 ) ) ;
#178 = FACE_OUTER_BOUND ( 'NONE', #7, .T. ) ;
#179 = PERSON_AND_ORGANIZATION ( #164, #90 ) ;
#180 = EDGE_LOOP ( 'NONE', ( #145 ) ) ;
#181 = AXIS2_PLACEMENT_3D ( 'NONE', #100, #169, #15 ) ;
#182 = APPROVAL_PERSON_ORGANIZATION ( #179, #166, #8 ) ;
#183 = DIRECTION ( 'NONE',  ( 3.491481338843133355E-15, -1.224646799147353207E-16, 1.000000000000000000 ) ) ;
#184 = VERTEX_POINT ( 'NONE', #140 ) ;
#185 = AXIS2_PLACEMENT_3D ( 'NONE', #150, #35, #66 ) ;
#186 = CARTESIAN_POINT ( 'NONE',  ( 0.0000000000000000000, 0.0000000000000000000, 0.0000000000000000000 ) ) ;
#187 = FACE_OUTER_BOUND ( 'NONE', #196, .T. ) ;
#188 = CARTESIAN_POINT ( 'NONE',  ( 1.047444401652940007E-13, -3.673940397442059178E-15, 30.00000000000000000 ) ) ;
#189 = AXIS2_PLACEMENT_3D ( 'NONE', #132, #201, #51 ) ;
#190 = DATE_AND_TIME ( #137, #124 ) ;
#191 = APPLICATION_PROTOCOL_DEFINITION ( 'international standard', 'config_control_design', 1994, #146 ) ;
#192 = PERSON_AND_ORGANIZATION ( #164, #90 ) ;
#193 = CLOSED_SHELL ( 'NONE', ( #89, #200, #101, #157, #120 ) ) ;
#194 = CALENDAR_DATE ( 2021, 7, 10 ) ;
#195 =( NAMED_UNIT ( * ) PLANE_ANGLE_UNIT ( ) SI_UNIT ( $, .RADIAN. ) );
#196 = EDGE_LOOP ( 'NONE', ( #144 ) ) ;
#197 = EDGE_LOOP ( 'NONE', ( #31 ) ) ;
#198 = CIRCLE ( 'NONE', #171, 0.6549999999999988054 ) ;
#199 = ORIENTED_EDGE ( 'NONE', *, *, #176, .T. ) ;
#200 = ADVANCED_FACE ( 'NONE', ( #218, #79 ), #159, .T. ) ;
#201 = DIRECTION ( 'NONE',  ( -3.491481338843133355E-15, 1.224646799147353207E-16, -1.000000000000000000 ) ) ;
#202 = CARTESIAN_POINT ( 'NONE',  ( 3.548931858032404044E-14, 0.7499999999999963363, 10.16454482671904103 ) ) ;
#203 = CARTESIAN_POINT ( 'NONE',  ( 3.491481338843133986E-14, -2.075306419378591507E-31, 10.00000000000000178 ) ) ;
#204 = SECURITY_CLASSIFICATION ( '', '', #175 ) ;
#205 = DIRECTION ( 'NONE',  ( -3.491481338843133355E-15, 1.224646799147353207E-16, -1.000000000000000000 ) ) ;
#206 = CARTESIAN_POINT ( 'NONE',  ( 1.047444401652940007E-13, 4.124339402320053683E-33, 30.00000000000000000 ) ) ;
#207 = DATE_AND_TIME ( #59, #217 ) ;
#208 = AXIS2_PLACEMENT_3D ( 'NONE', #186, #205, #219 ) ;
#209 = AXIS2_PLACEMENT_3D ( 'NONE', #188, #65, #40 ) ;
#210 =( LENGTH_UNIT ( ) NAMED_UNIT ( * ) SI_UNIT ( .MILLI., .METRE. ) );
#211 = DATE_AND_TIME ( #194, #72 ) ;
#212 = CIRCLE ( 'NONE', #114, 0.7499999999999975575 ) ;
#213 = ORIENTED_EDGE ( 'NONE', *, *, #176, .F. ) ;
#214 = EDGE_LOOP ( 'NONE', ( #129 ) ) ;
#215 = PRODUCT_DEFINITION ( 'UNKNOWN', '', #50, #38 ) ;
#216 = DATE_AND_TIME ( #61, #148 ) ;
#217 = LOCAL_TIME ( 15, 47, 17.00000000000000000, #71 ) ;
#218 = FACE_BOUND ( 'NONE', #180, .T. ) ;
#219 = DIRECTION ( 'NONE',  ( 4.275831445896958607E-31, 1.000000000000000000, 1.224646799147353207E-16 ) ) ;
#220 = CARTESIAN_POINT ( 'NONE',  ( 3.491481338843133986E-14, -2.075306419378591507E-31, 10.00000000000000178 ) ) ;
#221 = CONICAL_SURFACE ( 'NONE', #181, 0.6549999999999988054, 1.029744258676649649 ) ;
#222 = CC_DESIGN_PERSON_AND_ORGANIZATION_ASSIGNMENT ( #2, #57, ( #215 ) ) ;
#223 = FACE_OUTER_BOUND ( 'NONE', #177, .T. ) ;
ENDSEC;
END-ISO-10303-21;
