ISO-10303-21;
HEADER;
FILE_DESCRIPTION (( 'STEP AP203' ),
    '1' );
FILE_NAME ('37019.step',
    '2021-10-07T13:47:17',
    ( '' ),
    ( '' ),
    'SwSTEP 2.0',
    'SolidWorks 2019',
    '' );
FILE_SCHEMA (( 'CONFIG_CONTROL_DESIGN' ));
ENDSEC;

DATA;
#1 = DIRECTION ( 'NONE',  ( 0.0000000000000000000, 1.000000000000000000, 0.0000000000000000000 ) ) ;
#2 = APPROVAL ( #108, 'UNSPECIFIED' ) ;
#3 = CYLINDRICAL_SURFACE ( 'NONE', #127, 0.7499999999999987788 ) ;
#4 = DIRECTION ( 'NONE',  ( -3.491481338843133355E-15, 1.224646799147353207E-16, -1.000000000000000000 ) ) ;
#5 = DIRECTION ( 'NONE',  ( -3.491481338843133355E-15, 1.224646799147353207E-16, -1.000000000000000000 ) ) ;
#6 = CIRCLE ( 'NONE', #214, 0.7499999999999976685 ) ;
#7 = DIRECTION ( 'NONE',  ( -3.491481338843133355E-15, 1.224646799147353207E-16, -1.000000000000000000 ) ) ;
#8 = PRODUCT_DEFINITION ( 'UNKNOWN', '', #181, #100 ) ;
#9 = CARTESIAN_POINT ( 'NONE',  ( 3.570097838786346574E-14, 0.7499999999999963363, 10.22516660498395247 ) ) ;
#10 = APPLICATION_CONTEXT ( 'configuration controlled 3d designs of mechanical parts and assemblies' ) ;
#11 = CIRCLE ( 'NONE', #209, 0.5500000000000001554 ) ;
#12 = APPROVAL_ROLE ( '' ) ;
#13 = ORIENTED_EDGE ( 'NONE', *, *, #129, .F. ) ;
#14 = APPROVAL_ROLE ( '' ) ;
#15 = ORIENTED_EDGE ( 'NONE', *, *, #23, .F. ) ;
#16 = CALENDAR_DATE ( 2021, 7, 10 ) ;
#17 = AXIS2_PLACEMENT_3D ( 'NONE', #145, #95, #157 ) ;
#18 = DATE_AND_TIME ( #16, #187 ) ;
#19 = FACE_BOUND ( 'NONE', #44, .T. ) ;
#20 = DIRECTION ( 'NONE',  ( -4.275831445896958607E-31, -1.000000000000000000, -1.224646799147353207E-16 ) ) ;
#21 = DIRECTION ( 'NONE',  ( 0.0000000000000000000, 1.000000000000000000, 0.0000000000000000000 ) ) ;
#22 = FACE_OUTER_BOUND ( 'NONE', #172, .T. ) ;
#23 = EDGE_CURVE ( 'NONE', #182, #182, #29, .T. ) ;
#24 = DIRECTION ( 'NONE',  ( 3.491481338843133355E-15, -1.224646799147353207E-16, 1.000000000000000000 ) ) ;
#25 = AXIS2_PLACEMENT_3D ( 'NONE', #161, #176, #188 ) ;
#26 = PERSON_AND_ORGANIZATION ( #65, #133 ) ;
#27 = VERTEX_POINT ( 'NONE', #132 ) ;
#28 = AXIS2_PLACEMENT_3D ( 'NONE', #109, #24, #205 ) ;
#29 = CIRCLE ( 'NONE', #17, 0.6199999999999987743 ) ;
#30 = PERSON_AND_ORGANIZATION ( #65, #133 ) ;
#31 = EDGE_LOOP ( 'NONE', ( #70 ) ) ;
#32 = COORDINATED_UNIVERSAL_TIME_OFFSET ( 1, 0, .AHEAD. ) ;
#33 = CC_DESIGN_APPROVAL ( #2, ( #8 ) ) ;
#34 = CARTESIAN_POINT ( 'NONE',  ( 0.0000000000000000000, 0.0000000000000000000, 0.0000000000000000000 ) ) ;
#35 = DIRECTION ( 'NONE',  ( 3.491481338843133355E-15, -1.224646799147353207E-16, 1.000000000000000000 ) ) ;
#36 = CARTESIAN_POINT ( 'NONE',  ( 3.491481338843133355E-14, 4.649255326251735731E-33, 10.00000000000000000 ) ) ;
#37 = FACE_BOUND ( 'NONE', #104, .T. ) ;
#38 = CC_DESIGN_PERSON_AND_ORGANIZATION_ASSIGNMENT ( #86, #168, ( #8 ) ) ;
#39 = FACE_OUTER_BOUND ( 'NONE', #154, .T. ) ;
#40 = CARTESIAN_POINT ( 'NONE',  ( 0.0000000000000000000, 0.0000000000000000000, 0.0000000000000000000 ) ) ;
#41 = EDGE_CURVE ( 'NONE', #27, #27, #11, .T. ) ;
#42 = AXIS2_PLACEMENT_3D ( 'NONE', #112, #142, #138 ) ;
#43 =( LENGTH_UNIT ( ) NAMED_UNIT ( * ) SI_UNIT ( .MILLI., .METRE. ) );
#44 = EDGE_LOOP ( 'NONE', ( #106 ) ) ;
#45 = APPROVAL_DATE_TIME ( #18, #165 ) ;
#46 = ORIENTED_EDGE ( 'NONE', *, *, #202, .T. ) ;
#47 = APPROVAL_DATE_TIME ( #173, #2 ) ;
#48 = ADVANCED_FACE ( 'NONE', ( #72 ), #58, .T. ) ;
#49 = EDGE_LOOP ( 'NONE', ( #217 ) ) ;
#50 = AXIS2_PLACEMENT_3D ( 'NONE', #36, #189, #20 ) ;
#51 = CALENDAR_DATE ( 2021, 7, 10 ) ;
#52 = APPROVAL_STATUS ( 'not_yet_approved' ) ;
#53 = CARTESIAN_POINT ( 'NONE',  ( 1.047444401652940007E-13, -3.673940397442059178E-15, 30.00000000000000000 ) ) ;
#54 = LOCAL_TIME ( 15, 47, 17.00000000000000000, #135 ) ;
#55 = SECURITY_CLASSIFICATION ( '', '', #134 ) ;
#56 = DIRECTION ( 'NONE',  ( 0.0000000000000000000, 1.000000000000000000, 0.0000000000000000000 ) ) ;
#57 = CARTESIAN_POINT ( 'NONE',  ( 0.0000000000000000000, 0.0000000000000000000, 0.0000000000000000000 ) ) ;
#58 = PLANE ( 'NONE',  #25 ) ;
#59 = CONICAL_SURFACE ( 'NONE', #199, 0.5500000000000001554, 0.7853981633974510546 ) ;
#60 = DIRECTION ( 'NONE',  ( 0.0000000000000000000, -1.000000000000000000, 0.0000000000000000000 ) ) ;
#61 = PERSON_AND_ORGANIZATION ( #65, #133 ) ;
#62 = CC_DESIGN_DATE_AND_TIME_ASSIGNMENT ( #117, #198, ( #55 ) ) ;
#63 = APPLICATION_PROTOCOL_DEFINITION ( 'international standard', 'config_control_design', 1994, #76 ) ;
#64 = ADVANCED_FACE ( 'NONE', ( #37, #110 ), #191, .T. ) ;
#65 = PERSON ( 'UNSPECIFIED', 'UNSPECIFIED', 'UNSPECIFIED', ('UNSPECIFIED'), ('UNSPECIFIED'), ('UNSPECIFIED') ) ;
#66 = APPROVAL_PERSON_ORGANIZATION ( #216, #165, #137 ) ;
#67 = COORDINATED_UNIVERSAL_TIME_OFFSET ( 1, 0, .AHEAD. ) ;
#68 = CONICAL_SURFACE ( 'NONE', #28, 0.6199999999999987743, 1.029744258676649649 ) ;
#69 = DATE_AND_TIME ( #84, #54 ) ;
#70 = ORIENTED_EDGE ( 'NONE', *, *, #129, .T. ) ;
#71 = DIRECTION ( 'NONE',  ( 0.0000000000000000000, 1.000000000000000000, 0.0000000000000000000 ) ) ;
#72 = FACE_OUTER_BOUND ( 'NONE', #186, .T. ) ;
#73 = DIRECTION ( 'NONE',  ( 0.0000000000000000000, 1.000000000000000000, 0.0000000000000000000 ) ) ;
#74 = FACE_OUTER_BOUND ( 'NONE', #170, .T. ) ;
#75 = CC_DESIGN_PERSON_AND_ORGANIZATION_ASSIGNMENT ( #82, #203, ( #181 ) ) ;
#76 = APPLICATION_CONTEXT ( 'configuration controlled 3d designs of mechanical parts and assemblies' ) ;
#77 = MANIFOLD_SOLID_BREP ( 'Corps-Déplacer/Copier1[1]', #185 ) ;
#78 =( NAMED_UNIT ( * ) SI_UNIT ( $, .STERADIAN. ) SOLID_ANGLE_UNIT ( ) );
#79 = ADVANCED_FACE ( 'NONE', ( #160 ), #208, .F. ) ;
#80 = LOCAL_TIME ( 15, 47, 17.00000000000000000, #223 ) ;
#81 = PRODUCT_RELATED_PRODUCT_CATEGORY ( 'detail', '', ( #215 ) ) ;
#82 = PERSON_AND_ORGANIZATION ( #65, #133 ) ;
#83 = MANIFOLD_SOLID_BREP ( 'Corps-Déplacer/Copier1[2]', #175 ) ;
#84 = CALENDAR_DATE ( 2021, 7, 10 ) ;
#85 = EDGE_CURVE ( 'NONE', #147, #147, #6, .T. ) ;
#86 = PERSON_AND_ORGANIZATION ( #65, #133 ) ;
#87 = ORIENTED_EDGE ( 'NONE', *, *, #206, .T. ) ;
#88 = COORDINATED_UNIVERSAL_TIME_OFFSET ( 1, 0, .AHEAD. ) ;
#89 = CC_DESIGN_PERSON_AND_ORGANIZATION_ASSIGNMENT ( #61, #130, ( #215 ) ) ;
#90 = CALENDAR_DATE ( 2021, 7, 10 ) ;
#91 = CARTESIAN_POINT ( 'NONE',  ( 3.570097838786346574E-14, -1.252221755354200462E-15, 10.22516660498395247 ) ) ;
#92 = ORIENTED_EDGE ( 'NONE', *, *, #85, .T. ) ;
#93 = CARTESIAN_POINT ( 'NONE',  ( 1.047444401652940007E-13, -3.673940397442059178E-15, 30.00000000000000000 ) ) ;
#94 = DIRECTION ( 'NONE',  ( -3.491481338843133355E-15, 1.224646799147353207E-16, -1.000000000000000000 ) ) ;
#95 = DIRECTION ( 'NONE',  ( -3.491481338843133355E-15, 1.224646799147353207E-16, -1.000000000000000000 ) ) ;
#96 = CC_DESIGN_APPROVAL ( #165, ( #181 ) ) ;
#97 = VERTEX_POINT ( 'NONE', #211 ) ;
#98 = CARTESIAN_POINT ( 'NONE',  ( 1.300694055919897505E-15, 0.6199999999999987743, 0.3725335837970908948 ) ) ;
#99 = MECHANICAL_CONTEXT ( 'NONE', #76, 'mechanical' ) ;
#100 = DESIGN_CONTEXT ( 'detailed design', #10, 'design' ) ;
#101 = CC_DESIGN_PERSON_AND_ORGANIZATION_ASSIGNMENT ( #122, #105, ( #55 ) ) ;
#102 = DATE_TIME_ROLE ( 'creation_date' ) ;
#103 = CC_DESIGN_SECURITY_CLASSIFICATION ( #55, ( #181 ) ) ;
#104 = EDGE_LOOP ( 'NONE', ( #119 ) ) ;
#105 = PERSON_AND_ORGANIZATION_ROLE ( 'classification_officer' ) ;
#106 = ORIENTED_EDGE ( 'NONE', *, *, #41, .T. ) ;
#107 = CIRCLE ( 'NONE', #163, 0.7500000000000000000 ) ;
#108 = APPROVAL_STATUS ( 'not_yet_approved' ) ;
#109 = CARTESIAN_POINT ( 'NONE',  ( 1.300694055919897308E-15, -4.562220609719995938E-17, 0.3725335837970908393 ) ) ;
#110 = FACE_OUTER_BOUND ( 'NONE', #121, .T. ) ;
#111 = DIRECTION ( 'NONE',  ( -3.491481338843133355E-15, 1.224646799147353207E-16, -1.000000000000000000 ) ) ;
#112 = CARTESIAN_POINT ( 'NONE',  ( 1.047444401652940007E-13, 4.124339402320053683E-33, 30.00000000000000000 ) ) ;
#113 = DIRECTION ( 'NONE',  ( 4.275831445896958607E-31, 1.000000000000000000, 1.224646799147353207E-16 ) ) ;
#114 = APPLICATION_PROTOCOL_DEFINITION ( 'international standard', 'config_control_design', 1994, #10 ) ;
#115 = CC_DESIGN_APPROVAL ( #125, ( #55 ) ) ;
#116 =( GEOMETRIC_REPRESENTATION_CONTEXT ( 3 ) GLOBAL_UNCERTAINTY_ASSIGNED_CONTEXT ( ( #183 ) ) GLOBAL_UNIT_ASSIGNED_CONTEXT ( ( #43, #166, #78 ) ) REPRESENTATION_CONTEXT ( 'NONE', 'WORKASPACE' ) );
#117 = DATE_AND_TIME ( #90, #124 ) ;
#118 = PRODUCT_DEFINITION_SHAPE ( 'NONE', 'NONE',  #8 ) ;
#119 = ORIENTED_EDGE ( 'NONE', *, *, #206, .F. ) ;
#120 = LOCAL_TIME ( 15, 47, 17.00000000000000000, #32 ) ;
#121 = EDGE_LOOP ( 'NONE', ( #92 ) ) ;
#122 = PERSON_AND_ORGANIZATION ( #65, #133 ) ;
#123 = CARTESIAN_POINT ( 'NONE',  ( 3.491481338843133355E-14, -1.224646799147353256E-15, 10.00000000000000000 ) ) ;
#124 = LOCAL_TIME ( 15, 47, 17.00000000000000000, #88 ) ;
#125 = APPROVAL ( #52, 'UNSPECIFIED' ) ;
#126 = DIRECTION ( 'NONE',  ( -3.491481338843133355E-15, 1.224646799147353207E-16, -1.000000000000000000 ) ) ;
#127 = AXIS2_PLACEMENT_3D ( 'NONE', #57, #126, #178 ) ;
#128 = CARTESIAN_POINT ( 'NONE',  ( 3.491481338843133355E-14, -1.224646799147353256E-15, 10.00000000000000000 ) ) ;
#129 = EDGE_CURVE ( 'NONE', #97, #97, #158, .T. ) ;
#130 = PERSON_AND_ORGANIZATION_ROLE ( 'design_owner' ) ;
#131 = CIRCLE ( 'NONE', #153, 0.6199999999999993294 ) ;
#132 = CARTESIAN_POINT ( 'NONE',  ( 1.047444401652940007E-13, 0.5499999999999964917, 30.00000000000000000 ) ) ;
#133 = ORGANIZATION ( 'UNSPECIFIED', 'UNSPECIFIED', '' ) ;
#134 = SECURITY_CLASSIFICATION_LEVEL ( 'unclassified' ) ;
#135 = COORDINATED_UNIVERSAL_TIME_OFFSET ( 1, 0, .AHEAD. ) ;
#136 = EDGE_LOOP ( 'NONE', ( #46 ) ) ;
#137 = APPROVAL_ROLE ( '' ) ;
#138 = DIRECTION ( 'NONE',  ( 4.275831445896958607E-31, 1.000000000000000000, 1.224646799147353207E-16 ) ) ;
#139 = CC_DESIGN_PERSON_AND_ORGANIZATION_ASSIGNMENT ( #219, #200, ( #181 ) ) ;
#140 = AXIS2_PLACEMENT_3D ( 'NONE', #91, #35, #60 ) ;
#141 = FACE_OUTER_BOUND ( 'NONE', #136, .T. ) ;
#142 = DIRECTION ( 'NONE',  ( -3.491481338843133355E-15, 1.224646799147353207E-16, -1.000000000000000000 ) ) ;
#143 = CYLINDRICAL_SURFACE ( 'NONE', #220, 0.6199999999999989964 ) ;
#144 = ADVANCED_FACE ( 'NONE', ( #39 ), #177, .F. ) ;
#145 = CARTESIAN_POINT ( 'NONE',  ( 1.300694055919897308E-15, -4.562220609719995938E-17, 0.3725335837970908393 ) ) ;
#146 = AXIS2_PLACEMENT_3D ( 'NONE', #128, #7, #71 ) ;
#147 = VERTEX_POINT ( 'NONE', #9 ) ;
#148 = ADVANCED_FACE ( 'NONE', ( #74, #192 ), #143, .T. ) ;
#149 = CARTESIAN_POINT ( 'NONE',  ( 1.040461438975253740E-13, 0.7499999999999963363, 29.80000000000000071 ) ) ;
#150 = DIRECTION ( 'NONE',  ( 0.0000000000000000000, 0.0000000000000000000, 1.000000000000000000 ) ) ;
#151 = ORIENTED_EDGE ( 'NONE', *, *, #41, .F. ) ;
#152 = APPROVAL_STATUS ( 'not_yet_approved' ) ;
#153 = AXIS2_PLACEMENT_3D ( 'NONE', #123, #111, #21 ) ;
#154 = EDGE_LOOP ( 'NONE', ( #87 ) ) ;
#155 = ADVANCED_BREP_SHAPE_REPRESENTATION ( '37019', ( #77, #83, #196 ), #116 ) ;
#156 = SHAPE_DEFINITION_REPRESENTATION ( #118, #155 ) ;
#157 = DIRECTION ( 'NONE',  ( 3.106338619979418966E-31, 1.000000000000000000, 8.743565907141182524E-17 ) ) ;
#158 = CIRCLE ( 'NONE', #146, 0.6199999999999993294 ) ;
#159 = CARTESIAN_POINT ( 'NONE',  ( 3.570097838786346574E-14, -1.252221755354200462E-15, 10.22516660498395247 ) ) ;
#160 = FACE_OUTER_BOUND ( 'NONE', #222, .T. ) ;
#161 = CARTESIAN_POINT ( 'NONE',  ( 3.491481338843133355E-14, 4.649255326251735731E-33, 10.00000000000000000 ) ) ;
#162 = DIRECTION ( 'NONE',  ( 0.0000000000000000000, 1.000000000000000000, 0.0000000000000000000 ) ) ;
#163 = AXIS2_PLACEMENT_3D ( 'NONE', #190, #94, #56 ) ;
#164 = VERTEX_POINT ( 'NONE', #180 ) ;
#165 = APPROVAL ( #152, 'UNSPECIFIED' ) ;
#166 =( NAMED_UNIT ( * ) PLANE_ANGLE_UNIT ( ) SI_UNIT ( $, .RADIAN. ) );
#167 = DIRECTION ( 'NONE',  ( 1.000000000000000000, 0.0000000000000000000, 0.0000000000000000000 ) ) ;
#168 = PERSON_AND_ORGANIZATION_ROLE ( 'creator' ) ;
#169 = ORIENTED_EDGE ( 'NONE', *, *, #85, .F. ) ;
#170 = EDGE_LOOP ( 'NONE', ( #15 ) ) ;
#171 = APPROVAL_DATE_TIME ( #184, #125 ) ;
#172 = EDGE_LOOP ( 'NONE', ( #197 ) ) ;
#173 = DATE_AND_TIME ( #218, #120 ) ;
#174 = FACE_OUTER_BOUND ( 'NONE', #49, .T. ) ;
#175 = CLOSED_SHELL ( 'NONE', ( #195, #148, #48 ) ) ;
#176 = DIRECTION ( 'NONE',  ( 3.491481338843133355E-15, -1.224646799147353207E-16, 1.000000000000000000 ) ) ;
#177 = PLANE ( 'NONE',  #50 ) ;
#178 = DIRECTION ( 'NONE',  ( 4.275831445896959482E-31, 1.000000000000000000, 1.224646799147353207E-16 ) ) ;
#179 = ADVANCED_FACE ( 'NONE', ( #204, #141 ), #3, .T. ) ;
#180 = CARTESIAN_POINT ( 'NONE',  ( 3.491481338843133355E-14, 0.6199999999999981082, 10.00000000000000000 ) ) ;
#181 = PRODUCT_DEFINITION_FORMATION_WITH_SPECIFIED_SOURCE ( 'ANY', '', #215, .NOT_KNOWN. ) ;
#182 = VERTEX_POINT ( 'NONE', #98 ) ;
#183 = UNCERTAINTY_MEASURE_WITH_UNIT (LENGTH_MEASURE( 1.000000000000000082E-05 ), #43, 'distance_accuracy_value', 'NONE');
#184 = DATE_AND_TIME ( #51, #80 ) ;
#185 = CLOSED_SHELL ( 'NONE', ( #144, #64, #179, #213, #79 ) ) ;
#186 = EDGE_LOOP ( 'NONE', ( #13 ) ) ;
#187 = LOCAL_TIME ( 15, 47, 17.00000000000000000, #67 ) ;
#188 = DIRECTION ( 'NONE',  ( -4.275831445896958607E-31, -1.000000000000000000, -1.224646799147353207E-16 ) ) ;
#189 = DIRECTION ( 'NONE',  ( 3.491481338843133355E-15, -1.224646799147353207E-16, 1.000000000000000000 ) ) ;
#190 = CARTESIAN_POINT ( 'NONE',  ( 1.040461438975253740E-13, -3.649447461459112464E-15, 29.80000000000000071 ) ) ;
#191 = CONICAL_SURFACE ( 'NONE', #140, 0.7499999999999976685, 0.5235987755982962621 ) ;
#192 = FACE_OUTER_BOUND ( 'NONE', #31, .T. ) ;
#193 = APPROVAL_PERSON_ORGANIZATION ( #30, #125, #12 ) ;
#194 = VERTEX_POINT ( 'NONE', #149 ) ;
#195 = ADVANCED_FACE ( 'NONE', ( #22 ), #68, .T. ) ;
#196 = AXIS2_PLACEMENT_3D ( 'NONE', #40, #150, #167 ) ;
#197 = ORIENTED_EDGE ( 'NONE', *, *, #23, .T. ) ;
#198 = DATE_TIME_ROLE ( 'classification_date' ) ;
#199 = AXIS2_PLACEMENT_3D ( 'NONE', #93, #4, #73 ) ;
#200 = PERSON_AND_ORGANIZATION_ROLE ( 'creator' ) ;
#201 = EDGE_LOOP ( 'NONE', ( #169 ) ) ;
#202 = EDGE_CURVE ( 'NONE', #194, #194, #107, .T. ) ;
#203 = PERSON_AND_ORGANIZATION_ROLE ( 'design_supplier' ) ;
#204 = FACE_OUTER_BOUND ( 'NONE', #201, .T. ) ;
#205 = DIRECTION ( 'NONE',  ( -3.106338619979418966E-31, -1.000000000000000000, -8.743565907141182524E-17 ) ) ;
#206 = EDGE_CURVE ( 'NONE', #164, #164, #131, .T. ) ;
#207 = DIRECTION ( 'NONE',  ( -3.491481338843133355E-15, 1.224646799147353207E-16, -1.000000000000000000 ) ) ;
#208 = PLANE ( 'NONE',  #42 ) ;
#209 = AXIS2_PLACEMENT_3D ( 'NONE', #53, #210, #162 ) ;
#210 = DIRECTION ( 'NONE',  ( -3.491481338843133355E-15, 1.224646799147353207E-16, -1.000000000000000000 ) ) ;
#211 = CARTESIAN_POINT ( 'NONE',  ( 3.491481338843133355E-14, 0.6199999999999981082, 10.00000000000000000 ) ) ;
#212 = APPROVAL_PERSON_ORGANIZATION ( #26, #2, #14 ) ;
#213 = ADVANCED_FACE ( 'NONE', ( #174, #19 ), #59, .T. ) ;
#214 = AXIS2_PLACEMENT_3D ( 'NONE', #159, #5, #1 ) ;
#215 = PRODUCT ( '37019', '37019', '', ( #99 ) ) ;
#216 = PERSON_AND_ORGANIZATION ( #65, #133 ) ;
#217 = ORIENTED_EDGE ( 'NONE', *, *, #202, .F. ) ;
#218 = CALENDAR_DATE ( 2021, 7, 10 ) ;
#219 = PERSON_AND_ORGANIZATION ( #65, #133 ) ;
#220 = AXIS2_PLACEMENT_3D ( 'NONE', #34, #207, #113 ) ;
#221 = CC_DESIGN_DATE_AND_TIME_ASSIGNMENT ( #69, #102, ( #8 ) ) ;
#222 = EDGE_LOOP ( 'NONE', ( #151 ) ) ;
#223 = COORDINATED_UNIVERSAL_TIME_OFFSET ( 1, 0, .AHEAD. ) ;
ENDSEC;
END-ISO-10303-21;
