ISO-10303-21;
HEADER;
FILE_DESCRIPTION (( 'STEP AP203' ),
    '1' );
FILE_NAME ('37017.step',
    '2021-10-07T13:47:16',
    ( '' ),
    ( '' ),
    'SwSTEP 2.0',
    'SolidWorks 2019',
    '' );
FILE_SCHEMA (( 'CONFIG_CONTROL_DESIGN' ));
ENDSEC;

DATA;
#1 = EDGE_LOOP ( 'NONE', ( #159 ) ) ;
#2 = MANIFOLD_SOLID_BREP ( 'Corps-Déplacer/Copier1[1]', #118 ) ;
#3 = PLANE ( 'NONE',  #83 ) ;
#4 = FACE_OUTER_BOUND ( 'NONE', #13, .T. ) ;
#5 = ADVANCED_FACE ( 'NONE', ( #39, #144 ), #142, .T. ) ;
#6 = EDGE_LOOP ( 'NONE', ( #73 ) ) ;
#7 = AXIS2_PLACEMENT_3D ( 'NONE', #166, #218, #79 ) ;
#8 = DIRECTION ( 'NONE',  ( -3.491481338843133355E-15, 1.224646799147353207E-16, -1.000000000000000000 ) ) ;
#9 = CARTESIAN_POINT ( 'NONE',  ( 1.047444401652940007E-13, 0.5499999999999964917, 30.00000000000000000 ) ) ;
#10 = CARTESIAN_POINT ( 'NONE',  ( 1.040461438975253740E-13, 0.7499999999999963363, 29.80000000000000071 ) ) ;
#11 = DIRECTION ( 'NONE',  ( 0.0000000000000000000, 1.000000000000000000, 0.0000000000000000000 ) ) ;
#12 = COORDINATED_UNIVERSAL_TIME_OFFSET ( 1, 0, .AHEAD. ) ;
#13 = EDGE_LOOP ( 'NONE', ( #211 ) ) ;
#14 = APPROVAL_DATE_TIME ( #51, #88 ) ;
#15 = EDGE_CURVE ( 'NONE', #112, #112, #145, .T. ) ;
#16 = CALENDAR_DATE ( 2021, 7, 10 ) ;
#17 = COORDINATED_UNIVERSAL_TIME_OFFSET ( 1, 0, .AHEAD. ) ;
#18 = CLOSED_SHELL ( 'NONE', ( #53, #133, #48 ) ) ;
#19 = CALENDAR_DATE ( 2021, 7, 10 ) ;
#20 = DIRECTION ( 'NONE',  ( -3.491481338843133355E-15, 1.224646799147353207E-16, -1.000000000000000000 ) ) ;
#21 = FACE_OUTER_BOUND ( 'NONE', #193, .T. ) ;
#22 = AXIS2_PLACEMENT_3D ( 'NONE', #38, #20, #98 ) ;
#23 = CARTESIAN_POINT ( 'NONE',  ( 3.491481338843133355E-14, 4.574267337118642988E-33, 10.00000000000000000 ) ) ;
#24 = CARTESIAN_POINT ( 'NONE',  ( 3.491481338843133355E-14, 4.574267337118642988E-33, 10.00000000000000000 ) ) ;
#25 = DIRECTION ( 'NONE',  ( 0.0000000000000000000, 1.000000000000000000, 0.0000000000000000000 ) ) ;
#26 = LOCAL_TIME ( 15, 47, 16.00000000000000000, #12 ) ;
#27 = EDGE_CURVE ( 'NONE', #114, #114, #130, .T. ) ;
#28 = APPLICATION_PROTOCOL_DEFINITION ( 'international standard', 'config_control_design', 1994, #80 ) ;
#29 = AXIS2_PLACEMENT_3D ( 'NONE', #139, #76, #140 ) ;
#30 = APPROVAL_STATUS ( 'not_yet_approved' ) ;
#31 = AXIS2_PLACEMENT_3D ( 'NONE', #125, #106, #177 ) ;
#32 = PERSON_AND_ORGANIZATION ( #127, #126 ) ;
#33 = CC_DESIGN_DATE_AND_TIME_ASSIGNMENT ( #72, #103, ( #123 ) ) ;
#34 = COORDINATED_UNIVERSAL_TIME_OFFSET ( 1, 0, .AHEAD. ) ;
#35 = PERSON_AND_ORGANIZATION ( #127, #126 ) ;
#36 = AXIS2_PLACEMENT_3D ( 'NONE', #23, #180, #96 ) ;
#37 = PLANE ( 'NONE',  #36 ) ;
#38 = CARTESIAN_POINT ( 'NONE',  ( 0.0000000000000000000, 0.0000000000000000000, 0.0000000000000000000 ) ) ;
#39 = FACE_OUTER_BOUND ( 'NONE', #78, .T. ) ;
#40 = DIRECTION ( 'NONE',  ( -3.491481338843133355E-15, 1.224646799147353207E-16, -1.000000000000000000 ) ) ;
#41 = ORIENTED_EDGE ( 'NONE', *, *, #27, .F. ) ;
#42 = DIRECTION ( 'NONE',  ( -3.491481338843133355E-15, 1.224646799147353207E-16, -1.000000000000000000 ) ) ;
#43 = CIRCLE ( 'NONE', #31, 0.5500000000000001554 ) ;
#44 = DIRECTION ( 'NONE',  ( -3.491481338843133355E-15, 1.224646799147353207E-16, -1.000000000000000000 ) ) ;
#45 = ADVANCED_FACE ( 'NONE', ( #107 ), #3, .F. ) ;
#46 = ORIENTED_EDGE ( 'NONE', *, *, #217, .T. ) ;
#47 = PERSON_AND_ORGANIZATION_ROLE ( 'design_owner' ) ;
#48 = ADVANCED_FACE ( 'NONE', ( #57 ), #110, .T. ) ;
#49 = PERSON_AND_ORGANIZATION ( #127, #126 ) ;
#50 = CONICAL_SURFACE ( 'NONE', #99, 0.5500000000000001554, 0.7853981633974510546 ) ;
#51 = DATE_AND_TIME ( #101, #113 ) ;
#52 = APPROVAL_DATE_TIME ( #155, #119 ) ;
#53 = ADVANCED_FACE ( 'NONE', ( #54 ), #151, .T. ) ;
#54 = FACE_OUTER_BOUND ( 'NONE', #161, .T. ) ;
#55 = CC_DESIGN_APPROVAL ( #143, ( #123 ) ) ;
#56 = LOCAL_TIME ( 15, 47, 16.00000000000000000, #17 ) ;
#57 = FACE_OUTER_BOUND ( 'NONE', #191, .T. ) ;
#58 = DIRECTION ( 'NONE',  ( 3.491481338843133355E-15, -1.224646799147353207E-16, 1.000000000000000000 ) ) ;
#59 = DIRECTION ( 'NONE',  ( -3.491481338843133355E-15, 1.224646799147353207E-16, -1.000000000000000000 ) ) ;
#60 = LOCAL_TIME ( 15, 47, 16.00000000000000000, #34 ) ;
#61 = EDGE_LOOP ( 'NONE', ( #162 ) ) ;
#62 = VERTEX_POINT ( 'NONE', #146 ) ;
#63 = CARTESIAN_POINT ( 'NONE',  ( 3.491481338843133355E-14, 0.6099999999999980993, 10.00000000000000000 ) ) ;
#64 = CARTESIAN_POINT ( 'NONE',  ( 3.576145261858902214E-14, 0.7499999999999963363, 10.24248711305964221 ) ) ;
#65 = CONICAL_SURFACE ( 'NONE', #205, 0.7499999999999976685, 0.5235987755982937086 ) ;
#66 = SECURITY_CLASSIFICATION_LEVEL ( 'unclassified' ) ;
#67 = ORIENTED_EDGE ( 'NONE', *, *, #217, .F. ) ;
#68 = CC_DESIGN_PERSON_AND_ORGANIZATION_ASSIGNMENT ( #132, #120, ( #186 ) ) ;
#69 = ORIENTED_EDGE ( 'NONE', *, *, #200, .F. ) ;
#70 = APPROVAL_ROLE ( '' ) ;
#71 = DATE_AND_TIME ( #16, #60 ) ;
#72 = DATE_AND_TIME ( #19, #26 ) ;
#73 = ORIENTED_EDGE ( 'NONE', *, *, #200, .T. ) ;
#74 = CARTESIAN_POINT ( 'NONE',  ( 3.491481338843133355E-14, -1.224646799147353256E-15, 10.00000000000000000 ) ) ;
#75 = PRODUCT_DEFINITION ( 'UNKNOWN', '', #186, #185 ) ;
#76 = DIRECTION ( 'NONE',  ( -3.491481338843133355E-15, 1.224646799147353207E-16, -1.000000000000000000 ) ) ;
#77 = EDGE_LOOP ( 'NONE', ( #41 ) ) ;
#78 = EDGE_LOOP ( 'NONE', ( #85 ) ) ;
#79 = DIRECTION ( 'NONE',  ( 3.157262203913507572E-31, 1.000000000000000000, 8.886903053159889787E-17 ) ) ;
#80 = APPLICATION_CONTEXT ( 'configuration controlled 3d designs of mechanical parts and assemblies' ) ;
#81 =( LENGTH_UNIT ( ) NAMED_UNIT ( * ) SI_UNIT ( .MILLI., .METRE. ) );
#82 = MANIFOLD_SOLID_BREP ( 'Corps-Déplacer/Copier1[2]', #18 ) ;
#83 = AXIS2_PLACEMENT_3D ( 'NONE', #128, #59, #197 ) ;
#84 = DIRECTION ( 'NONE',  ( 0.0000000000000000000, -1.000000000000000000, 0.0000000000000000000 ) ) ;
#85 = ORIENTED_EDGE ( 'NONE', *, *, #141, .F. ) ;
#86 = CALENDAR_DATE ( 2021, 7, 10 ) ;
#87 = ORIENTED_EDGE ( 'NONE', *, *, #27, .T. ) ;
#88 = APPROVAL ( #30, 'UNSPECIFIED' ) ;
#89 = CARTESIAN_POINT ( 'NONE',  ( 0.0000000000000000000, 0.0000000000000000000, 0.0000000000000000000 ) ) ;
#90 = MECHANICAL_CONTEXT ( 'NONE', #80, 'mechanical' ) ;
#91 = APPLICATION_CONTEXT ( 'configuration controlled 3d designs of mechanical parts and assemblies' ) ;
#92 = CYLINDRICAL_SURFACE ( 'NONE', #29, 0.6099999999999989875 ) ;
#93 = EDGE_LOOP ( 'NONE', ( #172 ) ) ;
#94 = AXIS2_PLACEMENT_3D ( 'NONE', #74, #8, #137 ) ;
#95 = DIRECTION ( 'NONE',  ( 3.491481338843133355E-15, -1.224646799147353207E-16, 1.000000000000000000 ) ) ;
#96 = DIRECTION ( 'NONE',  ( -4.275831445896958607E-31, -1.000000000000000000, -1.224646799147353207E-16 ) ) ;
#97 = ADVANCED_FACE ( 'NONE', ( #4 ), #37, .F. ) ;
#98 = DIRECTION ( 'NONE',  ( 4.275831445896959482E-31, 1.000000000000000000, 1.224646799147353207E-16 ) ) ;
#99 = AXIS2_PLACEMENT_3D ( 'NONE', #165, #44, #167 ) ;
#100 = CARTESIAN_POINT ( 'NONE',  ( 3.491481338843133355E-14, -1.224646799147353256E-15, 10.00000000000000000 ) ) ;
#101 = CALENDAR_DATE ( 2021, 7, 10 ) ;
#102 = CC_DESIGN_DATE_AND_TIME_ASSIGNMENT ( #71, #135, ( #75 ) ) ;
#103 = DATE_TIME_ROLE ( 'classification_date' ) ;
#104 = AXIS2_PLACEMENT_3D ( 'NONE', #100, #42, #11 ) ;
#105 = PERSON_AND_ORGANIZATION ( #127, #126 ) ;
#106 = DIRECTION ( 'NONE',  ( -3.491481338843133355E-15, 1.224646799147353207E-16, -1.000000000000000000 ) ) ;
#107 = FACE_OUTER_BOUND ( 'NONE', #116, .T. ) ;
#108 = FACE_OUTER_BOUND ( 'NONE', #93, .T. ) ;
#109 = CIRCLE ( 'NONE', #7, 0.6099999999999987654 ) ;
#110 = PLANE ( 'NONE',  #199 ) ;
#111 = DIRECTION ( 'NONE',  ( 3.491481338843133355E-15, -1.224646799147353207E-16, 1.000000000000000000 ) ) ;
#112 = VERTEX_POINT ( 'NONE', #63 ) ;
#113 = LOCAL_TIME ( 15, 47, 16.00000000000000000, #206 ) ;
#114 = VERTEX_POINT ( 'NONE', #10 ) ;
#115 = DIRECTION ( 'NONE',  ( 0.0000000000000000000, 0.0000000000000000000, 1.000000000000000000 ) ) ;
#116 = EDGE_LOOP ( 'NONE', ( #170 ) ) ;
#117 = PERSON_AND_ORGANIZATION ( #127, #126 ) ;
#118 = CLOSED_SHELL ( 'NONE', ( #97, #181, #5, #192, #45 ) ) ;
#119 = APPROVAL ( #223, 'UNSPECIFIED' ) ;
#120 = PERSON_AND_ORGANIZATION_ROLE ( 'creator' ) ;
#121 = EDGE_CURVE ( 'NONE', #198, #198, #43, .T. ) ;
#122 = CARTESIAN_POINT ( 'NONE',  ( 1.279715119534092347E-15, -4.488636406337414623E-17, 0.3665249776068151277 ) ) ;
#123 = SECURITY_CLASSIFICATION ( '', '', #66 ) ;
#124 = DIRECTION ( 'NONE',  ( 0.0000000000000000000, 1.000000000000000000, 0.0000000000000000000 ) ) ;
#125 = CARTESIAN_POINT ( 'NONE',  ( 1.047444401652940007E-13, -3.673940397442059178E-15, 30.00000000000000000 ) ) ;
#126 = ORGANIZATION ( 'UNSPECIFIED', 'UNSPECIFIED', '' ) ;
#127 = PERSON ( 'UNSPECIFIED', 'UNSPECIFIED', 'UNSPECIFIED', ('UNSPECIFIED'), ('UNSPECIFIED'), ('UNSPECIFIED') ) ;
#128 = CARTESIAN_POINT ( 'NONE',  ( 1.047444401652940007E-13, 4.124339402320053683E-33, 30.00000000000000000 ) ) ;
#129 =( NAMED_UNIT ( * ) PLANE_ANGLE_UNIT ( ) SI_UNIT ( $, .RADIAN. ) );
#130 = CIRCLE ( 'NONE', #219, 0.7500000000000000000 ) ;
#131 = PERSON_AND_ORGANIZATION_ROLE ( 'creator' ) ;
#132 = PERSON_AND_ORGANIZATION ( #127, #126 ) ;
#133 = ADVANCED_FACE ( 'NONE', ( #21, #160 ), #92, .T. ) ;
#134 =( GEOMETRIC_REPRESENTATION_CONTEXT ( 3 ) GLOBAL_UNCERTAINTY_ASSIGNED_CONTEXT ( ( #221 ) ) GLOBAL_UNIT_ASSIGNED_CONTEXT ( ( #81, #129, #148 ) ) REPRESENTATION_CONTEXT ( 'NONE', 'WORKASPACE' ) );
#135 = DATE_TIME_ROLE ( 'creation_date' ) ;
#136 = APPROVAL_DATE_TIME ( #153, #143 ) ;
#137 = DIRECTION ( 'NONE',  ( 0.0000000000000000000, 1.000000000000000000, 0.0000000000000000000 ) ) ;
#138 = AXIS2_PLACEMENT_3D ( 'NONE', #196, #212, #124 ) ;
#139 = CARTESIAN_POINT ( 'NONE',  ( 0.0000000000000000000, 0.0000000000000000000, 0.0000000000000000000 ) ) ;
#140 = DIRECTION ( 'NONE',  ( 4.275831445896958607E-31, 1.000000000000000000, 1.224646799147353207E-16 ) ) ;
#141 = EDGE_CURVE ( 'NONE', #201, #201, #150, .T. ) ;
#142 = CYLINDRICAL_SURFACE ( 'NONE', #22, 0.7499999999999987788 ) ;
#143 = APPROVAL ( #174, 'UNSPECIFIED' ) ;
#144 = FACE_OUTER_BOUND ( 'NONE', #163, .T. ) ;
#145 = CIRCLE ( 'NONE', #94, 0.6099999999999993205 ) ;
#146 = CARTESIAN_POINT ( 'NONE',  ( 3.491481338843133355E-14, 0.6099999999999980993, 10.00000000000000000 ) ) ;
#147 = CC_DESIGN_PERSON_AND_ORGANIZATION_ASSIGNMENT ( #49, #131, ( #75 ) ) ;
#148 =( NAMED_UNIT ( * ) SI_UNIT ( $, .STERADIAN. ) SOLID_ANGLE_UNIT ( ) );
#149 = FACE_OUTER_BOUND ( 'NONE', #77, .T. ) ;
#150 = CIRCLE ( 'NONE', #138, 0.7499999999999976685 ) ;
#151 = CONICAL_SURFACE ( 'NONE', #203, 0.6099999999999987654, 1.029744258676649649 ) ;
#152 = APPROVAL_PERSON_ORGANIZATION ( #117, #143, #70 ) ;
#153 = DATE_AND_TIME ( #86, #56 ) ;
#154 = CC_DESIGN_PERSON_AND_ORGANIZATION_ASSIGNMENT ( #189, #47, ( #188 ) ) ;
#155 = DATE_AND_TIME ( #187, #156 ) ;
#156 = LOCAL_TIME ( 15, 47, 16.00000000000000000, #222 ) ;
#157 = PERSON_AND_ORGANIZATION ( #127, #126 ) ;
#158 = PERSON_AND_ORGANIZATION_ROLE ( 'design_supplier' ) ;
#159 = ORIENTED_EDGE ( 'NONE', *, *, #15, .F. ) ;
#160 = FACE_OUTER_BOUND ( 'NONE', #6, .T. ) ;
#161 = EDGE_LOOP ( 'NONE', ( #46 ) ) ;
#162 = ORIENTED_EDGE ( 'NONE', *, *, #121, .T. ) ;
#163 = EDGE_LOOP ( 'NONE', ( #87 ) ) ;
#164 = CC_DESIGN_APPROVAL ( #119, ( #75 ) ) ;
#165 = CARTESIAN_POINT ( 'NONE',  ( 1.047444401652940007E-13, -3.673940397442059178E-15, 30.00000000000000000 ) ) ;
#166 = CARTESIAN_POINT ( 'NONE',  ( 1.279715119534092347E-15, -4.488636406337414623E-17, 0.3665249776068151277 ) ) ;
#167 = DIRECTION ( 'NONE',  ( 0.0000000000000000000, 1.000000000000000000, 0.0000000000000000000 ) ) ;
#168 = APPROVAL_PERSON_ORGANIZATION ( #157, #119, #204 ) ;
#169 = CC_DESIGN_PERSON_AND_ORGANIZATION_ASSIGNMENT ( #32, #158, ( #186 ) ) ;
#170 = ORIENTED_EDGE ( 'NONE', *, *, #121, .F. ) ;
#171 = PERSON_AND_ORGANIZATION_ROLE ( 'classification_officer' ) ;
#172 = ORIENTED_EDGE ( 'NONE', *, *, #141, .T. ) ;
#173 = DIRECTION ( 'NONE',  ( 1.000000000000000000, 0.0000000000000000000, 0.0000000000000000000 ) ) ;
#174 = APPROVAL_STATUS ( 'not_yet_approved' ) ;
#175 = APPROVAL_ROLE ( '' ) ;
#176 = PRODUCT_DEFINITION_SHAPE ( 'NONE', 'NONE',  #75 ) ;
#177 = DIRECTION ( 'NONE',  ( 0.0000000000000000000, 1.000000000000000000, 0.0000000000000000000 ) ) ;
#178 = CARTESIAN_POINT ( 'NONE',  ( 3.576145261858902214E-14, -1.254342905831650748E-15, 10.24248711305964221 ) ) ;
#179 = PRODUCT_RELATED_PRODUCT_CATEGORY ( 'detail', '', ( #188 ) ) ;
#180 = DIRECTION ( 'NONE',  ( 3.491481338843133355E-15, -1.224646799147353207E-16, 1.000000000000000000 ) ) ;
#181 = ADVANCED_FACE ( 'NONE', ( #194, #108 ), #65, .T. ) ;
#182 = CARTESIAN_POINT ( 'NONE',  ( 1.279715119534092544E-15, 0.6099999999999987654, 0.3665249776068151832 ) ) ;
#183 = CC_DESIGN_SECURITY_CLASSIFICATION ( #123, ( #186 ) ) ;
#184 = VERTEX_POINT ( 'NONE', #182 ) ;
#185 = DESIGN_CONTEXT ( 'detailed design', #91, 'design' ) ;
#186 = PRODUCT_DEFINITION_FORMATION_WITH_SPECIFIED_SOURCE ( 'ANY', '', #188, .NOT_KNOWN. ) ;
#187 = CALENDAR_DATE ( 2021, 7, 10 ) ;
#188 = PRODUCT ( '37017', '37017', '', ( #90 ) ) ;
#189 = PERSON_AND_ORGANIZATION ( #127, #126 ) ;
#190 = APPLICATION_PROTOCOL_DEFINITION ( 'international standard', 'config_control_design', 1994, #91 ) ;
#191 = EDGE_LOOP ( 'NONE', ( #69 ) ) ;
#192 = ADVANCED_FACE ( 'NONE', ( #149, #216 ), #50, .T. ) ;
#193 = EDGE_LOOP ( 'NONE', ( #67 ) ) ;
#194 = FACE_BOUND ( 'NONE', #1, .T. ) ;
#195 = AXIS2_PLACEMENT_3D ( 'NONE', #89, #115, #173 ) ;
#196 = CARTESIAN_POINT ( 'NONE',  ( 3.576145261858902214E-14, -1.254342905831650748E-15, 10.24248711305964221 ) ) ;
#197 = DIRECTION ( 'NONE',  ( 4.275831445896958607E-31, 1.000000000000000000, 1.224646799147353207E-16 ) ) ;
#198 = VERTEX_POINT ( 'NONE', #9 ) ;
#199 = AXIS2_PLACEMENT_3D ( 'NONE', #24, #111, #209 ) ;
#200 = EDGE_CURVE ( 'NONE', #62, #62, #210, .T. ) ;
#201 = VERTEX_POINT ( 'NONE', #64 ) ;
#202 = CC_DESIGN_PERSON_AND_ORGANIZATION_ASSIGNMENT ( #35, #171, ( #123 ) ) ;
#203 = AXIS2_PLACEMENT_3D ( 'NONE', #122, #58, #213 ) ;
#204 = APPROVAL_ROLE ( '' ) ;
#205 = AXIS2_PLACEMENT_3D ( 'NONE', #178, #95, #84 ) ;
#206 = COORDINATED_UNIVERSAL_TIME_OFFSET ( 1, 0, .AHEAD. ) ;
#207 = SHAPE_DEFINITION_REPRESENTATION ( #176, #208 ) ;
#208 = ADVANCED_BREP_SHAPE_REPRESENTATION ( '37017', ( #2, #82, #195 ), #134 ) ;
#209 = DIRECTION ( 'NONE',  ( -4.275831445896958607E-31, -1.000000000000000000, -1.224646799147353207E-16 ) ) ;
#210 = CIRCLE ( 'NONE', #104, 0.6099999999999993205 ) ;
#211 = ORIENTED_EDGE ( 'NONE', *, *, #15, .T. ) ;
#212 = DIRECTION ( 'NONE',  ( -3.491481338843133355E-15, 1.224646799147353207E-16, -1.000000000000000000 ) ) ;
#213 = DIRECTION ( 'NONE',  ( -3.157262203913507572E-31, -1.000000000000000000, -8.886903053159889787E-17 ) ) ;
#214 = APPROVAL_PERSON_ORGANIZATION ( #105, #88, #175 ) ;
#215 = CARTESIAN_POINT ( 'NONE',  ( 1.040461438975253740E-13, -3.649447461459112464E-15, 29.80000000000000071 ) ) ;
#216 = FACE_BOUND ( 'NONE', #61, .T. ) ;
#217 = EDGE_CURVE ( 'NONE', #184, #184, #109, .T. ) ;
#218 = DIRECTION ( 'NONE',  ( -3.491481338843133355E-15, 1.224646799147353207E-16, -1.000000000000000000 ) ) ;
#219 = AXIS2_PLACEMENT_3D ( 'NONE', #215, #40, #25 ) ;
#220 = CC_DESIGN_APPROVAL ( #88, ( #186 ) ) ;
#221 = UNCERTAINTY_MEASURE_WITH_UNIT (LENGTH_MEASURE( 1.000000000000000082E-05 ), #81, 'distance_accuracy_value', 'NONE');
#222 = COORDINATED_UNIVERSAL_TIME_OFFSET ( 1, 0, .AHEAD. ) ;
#223 = APPROVAL_STATUS ( 'not_yet_approved' ) ;
ENDSEC;
END-ISO-10303-21;
