ISO-10303-21;
HEADER;
FILE_DESCRIPTION (( 'STEP AP203' ),
    '1' );
FILE_NAME ('37016.step',
    '2021-10-07T13:47:15',
    ( '' ),
    ( '' ),
    'SwSTEP 2.0',
    'SolidWorks 2019',
    '' );
FILE_SCHEMA (( 'CONFIG_CONTROL_DESIGN' ));
ENDSEC;

DATA;
#1 = CALENDAR_DATE ( 2021, 7, 10 ) ;
#2 = SHAPE_DEFINITION_REPRESENTATION ( #104, #43 ) ;
#3 = CIRCLE ( 'NONE', #204, 0.6000000000000001998 ) ;
#4 = CC_DESIGN_PERSON_AND_ORGANIZATION_ASSIGNMENT ( #13, #221, ( #167 ) ) ;
#5 = CARTESIAN_POINT ( 'NONE',  ( 3.491481338843133355E-14, -1.224646799147353256E-15, 10.00000000000000000 ) ) ;
#6 = EDGE_LOOP ( 'NONE', ( #156 ) ) ;
#7 = FACE_OUTER_BOUND ( 'NONE', #35, .T. ) ;
#8 = CARTESIAN_POINT ( 'NONE',  ( 1.258736183148287584E-15, 0.5999999999999987566, 0.3605163714165394717 ) ) ;
#9 = CIRCLE ( 'NONE', #132, 0.7499999999999976685 ) ;
#10 = CARTESIAN_POINT ( 'NONE',  ( 1.258736183148287386E-15, -4.415052202954833308E-17, 0.3605163714165394162 ) ) ;
#11 = DIRECTION ( 'NONE',  ( 0.0000000000000000000, 1.000000000000000000, 0.0000000000000000000 ) ) ;
#12 = DIRECTION ( 'NONE',  ( -3.491481338843133355E-15, 1.224646799147353207E-16, -1.000000000000000000 ) ) ;
#13 = PERSON_AND_ORGANIZATION ( #57, #31 ) ;
#14 = ADVANCED_FACE ( 'NONE', ( #137 ), #20, .T. ) ;
#15 = PERSON_AND_ORGANIZATION ( #57, #31 ) ;
#16 = PERSON_AND_ORGANIZATION_ROLE ( 'design_supplier' ) ;
#17 = AXIS2_PLACEMENT_3D ( 'NONE', #28, #82, #11 ) ;
#18 = CALENDAR_DATE ( 2021, 7, 10 ) ;
#19 = ORIENTED_EDGE ( 'NONE', *, *, #47, .F. ) ;
#20 = PLANE ( 'NONE',  #119 ) ;
#21 = EDGE_CURVE ( 'NONE', #42, #42, #9, .T. ) ;
#22 = DIRECTION ( 'NONE',  ( -3.209883240645399803E-31, -1.000000000000000000, -9.035018104045889183E-17 ) ) ;
#23 = EDGE_LOOP ( 'NONE', ( #120 ) ) ;
#24 = CYLINDRICAL_SURFACE ( 'NONE', #48, 0.5999999999999994227 ) ;
#25 = AXIS2_PLACEMENT_3D ( 'NONE', #159, #160, #109 ) ;
#26 = LOCAL_TIME ( 15, 47, 15.00000000000000000, #191 ) ;
#27 = DIRECTION ( 'NONE',  ( 4.275831445896959482E-31, 1.000000000000000000, 1.224646799147353207E-16 ) ) ;
#28 = CARTESIAN_POINT ( 'NONE',  ( 1.047444401652940007E-13, -3.673940397442059178E-15, 30.00000000000000000 ) ) ;
#29 = DIRECTION ( 'NONE',  ( 1.000000000000000000, 0.0000000000000000000, 0.0000000000000000000 ) ) ;
#30 = PERSON_AND_ORGANIZATION_ROLE ( 'classification_officer' ) ;
#31 = ORGANIZATION ( 'UNSPECIFIED', 'UNSPECIFIED', '' ) ;
#32 = PERSON_AND_ORGANIZATION ( #57, #31 ) ;
#33 = CALENDAR_DATE ( 2021, 7, 10 ) ;
#34 = APPROVAL_STATUS ( 'not_yet_approved' ) ;
#35 = EDGE_LOOP ( 'NONE', ( #217 ) ) ;
#36 = CIRCLE ( 'NONE', #161, 0.5500000000000001554 ) ;
#37 = DIRECTION ( 'NONE',  ( 0.0000000000000000000, 1.000000000000000000, 0.0000000000000000000 ) ) ;
#38 = VERTEX_POINT ( 'NONE', #107 ) ;
#39 =( GEOMETRIC_REPRESENTATION_CONTEXT ( 3 ) GLOBAL_UNCERTAINTY_ASSIGNED_CONTEXT ( ( #136 ) ) GLOBAL_UNIT_ASSIGNED_CONTEXT ( ( #84, #54, #117 ) ) REPRESENTATION_CONTEXT ( 'NONE', 'WORKASPACE' ) );
#40 = APPLICATION_CONTEXT ( 'configuration controlled 3d designs of mechanical parts and assemblies' ) ;
#41 = EDGE_LOOP ( 'NONE', ( #58 ) ) ;
#42 = VERTEX_POINT ( 'NONE', #127 ) ;
#43 = ADVANCED_BREP_SHAPE_REPRESENTATION ( '37016', ( #75, #220, #124 ), #39 ) ;
#44 = EDGE_LOOP ( 'NONE', ( #102 ) ) ;
#45 = DIRECTION ( 'NONE',  ( -3.491481338843133355E-15, 1.224646799147353207E-16, -1.000000000000000000 ) ) ;
#46 = CARTESIAN_POINT ( 'NONE',  ( 3.491481338843133355E-14, -1.224646799147353256E-15, 10.00000000000000000 ) ) ;
#47 = EDGE_CURVE ( 'NONE', #123, #123, #3, .T. ) ;
#48 = AXIS2_PLACEMENT_3D ( 'NONE', #216, #125, #64 ) ;
#49 = LOCAL_TIME ( 15, 47, 15.00000000000000000, #133 ) ;
#50 = CARTESIAN_POINT ( 'NONE',  ( 1.040461438975253740E-13, 0.7499999999999963363, 29.80000000000000071 ) ) ;
#51 = DATE_AND_TIME ( #71, #128 ) ;
#52 = CLOSED_SHELL ( 'NONE', ( #135, #149, #14 ) ) ;
#53 = APPLICATION_PROTOCOL_DEFINITION ( 'international standard', 'config_control_design', 1994, #40 ) ;
#54 =( NAMED_UNIT ( * ) PLANE_ANGLE_UNIT ( ) SI_UNIT ( $, .RADIAN. ) );
#55 = PRODUCT_DEFINITION ( 'UNKNOWN', '', #96, #222 ) ;
#56 = LOCAL_TIME ( 15, 47, 15.00000000000000000, #86 ) ;
#57 = PERSON ( 'UNSPECIFIED', 'UNSPECIFIED', 'UNSPECIFIED', ('UNSPECIFIED'), ('UNSPECIFIED'), ('UNSPECIFIED') ) ;
#58 = ORIENTED_EDGE ( 'NONE', *, *, #21, .T. ) ;
#59 = CC_DESIGN_APPROVAL ( #184, ( #96 ) ) ;
#60 = EDGE_LOOP ( 'NONE', ( #175 ) ) ;
#61 = CARTESIAN_POINT ( 'NONE',  ( 1.047444401652940007E-13, 4.124339402320053683E-33, 30.00000000000000000 ) ) ;
#62 = APPROVAL_PERSON_ORGANIZATION ( #83, #184, #116 ) ;
#63 = FACE_OUTER_BOUND ( 'NONE', #155, .T. ) ;
#64 = DIRECTION ( 'NONE',  ( 4.275831445896957731E-31, 1.000000000000000000, 1.224646799147353207E-16 ) ) ;
#65 = DIRECTION ( 'NONE',  ( 0.0000000000000000000, 1.000000000000000000, 0.0000000000000000000 ) ) ;
#66 = AXIS2_PLACEMENT_3D ( 'NONE', #92, #147, #27 ) ;
#67 = FACE_OUTER_BOUND ( 'NONE', #80, .T. ) ;
#68 = DATE_AND_TIME ( #18, #209 ) ;
#69 = DIRECTION ( 'NONE',  ( 0.0000000000000000000, 0.0000000000000000000, 1.000000000000000000 ) ) ;
#70 = DATE_TIME_ROLE ( 'classification_date' ) ;
#71 = CALENDAR_DATE ( 2021, 7, 10 ) ;
#72 = APPROVAL_DATE_TIME ( #51, #141 ) ;
#73 = ADVANCED_FACE ( 'NONE', ( #210, #197 ), #174, .T. ) ;
#74 = ORIENTED_EDGE ( 'NONE', *, *, #90, .T. ) ;
#75 = MANIFOLD_SOLID_BREP ( 'Corps-Déplacer/Copier1[1]', #103 ) ;
#76 = AXIS2_PLACEMENT_3D ( 'NONE', #61, #146, #218 ) ;
#77 = CC_DESIGN_SECURITY_CLASSIFICATION ( #214, ( #96 ) ) ;
#78 = CARTESIAN_POINT ( 'NONE',  ( 1.040461438975253740E-13, -3.649447461459112464E-15, 29.80000000000000071 ) ) ;
#79 = AXIS2_PLACEMENT_3D ( 'NONE', #111, #199, #178 ) ;
#80 = EDGE_LOOP ( 'NONE', ( #106 ) ) ;
#81 = PLANE ( 'NONE',  #76 ) ;
#82 = DIRECTION ( 'NONE',  ( -3.491481338843133355E-15, 1.224646799147353207E-16, -1.000000000000000000 ) ) ;
#83 = PERSON_AND_ORGANIZATION ( #57, #31 ) ;
#84 =( LENGTH_UNIT ( ) NAMED_UNIT ( * ) SI_UNIT ( .MILLI., .METRE. ) );
#85 = CC_DESIGN_PERSON_AND_ORGANIZATION_ASSIGNMENT ( #134, #16, ( #96 ) ) ;
#86 = COORDINATED_UNIVERSAL_TIME_OFFSET ( 1, 0, .AHEAD. ) ;
#87 = EDGE_CURVE ( 'NONE', #195, #195, #152, .T. ) ;
#88 = CALENDAR_DATE ( 2021, 7, 10 ) ;
#89 = COORDINATED_UNIVERSAL_TIME_OFFSET ( 1, 0, .AHEAD. ) ;
#90 = EDGE_CURVE ( 'NONE', #164, #164, #139, .T. ) ;
#91 = ORIENTED_EDGE ( 'NONE', *, *, #87, .F. ) ;
#92 = CARTESIAN_POINT ( 'NONE',  ( 0.0000000000000000000, 0.0000000000000000000, 0.0000000000000000000 ) ) ;
#93 = DIRECTION ( 'NONE',  ( 0.0000000000000000000, 1.000000000000000000, 0.0000000000000000000 ) ) ;
#94 = PLANE ( 'NONE',  #25 ) ;
#95 = AXIS2_PLACEMENT_3D ( 'NONE', #10, #126, #22 ) ;
#96 = PRODUCT_DEFINITION_FORMATION_WITH_SPECIFIED_SOURCE ( 'ANY', '', #167, .NOT_KNOWN. ) ;
#97 = DIRECTION ( 'NONE',  ( -3.491481338843133355E-15, 1.224646799147353207E-16, -1.000000000000000000 ) ) ;
#98 = DIRECTION ( 'NONE',  ( -3.491481338843133355E-15, 1.224646799147353207E-16, -1.000000000000000000 ) ) ;
#99 = CC_DESIGN_DATE_AND_TIME_ASSIGNMENT ( #151, #70, ( #214 ) ) ;
#100 = PERSON_AND_ORGANIZATION ( #57, #31 ) ;
#101 = APPROVAL_STATUS ( 'not_yet_approved' ) ;
#102 = ORIENTED_EDGE ( 'NONE', *, *, #118, .T. ) ;
#103 = CLOSED_SHELL ( 'NONE', ( #130, #73, #196, #192, #213 ) ) ;
#104 = PRODUCT_DEFINITION_SHAPE ( 'NONE', 'NONE',  #55 ) ;
#105 = CARTESIAN_POINT ( 'NONE',  ( 1.258736183148287386E-15, -4.415052202954833308E-17, 0.3605163714165394162 ) ) ;
#106 = ORIENTED_EDGE ( 'NONE', *, *, #118, .F. ) ;
#107 = CARTESIAN_POINT ( 'NONE',  ( 1.047444401652940007E-13, 0.5499999999999964917, 30.00000000000000000 ) ) ;
#108 = PRODUCT_RELATED_PRODUCT_CATEGORY ( 'detail', '', ( #167 ) ) ;
#109 = DIRECTION ( 'NONE',  ( -4.275831445896958607E-31, -1.000000000000000000, -1.224646799147353207E-16 ) ) ;
#110 = CONICAL_SURFACE ( 'NONE', #17, 0.5500000000000001554, 0.7853981633974510546 ) ;
#111 = CARTESIAN_POINT ( 'NONE',  ( 3.582192684931457223E-14, -1.256464056309100442E-15, 10.25980762113533196 ) ) ;
#112 = APPROVAL_ROLE ( '' ) ;
#113 = SECURITY_CLASSIFICATION_LEVEL ( 'unclassified' ) ;
#114 = EDGE_CURVE ( 'NONE', #38, #38, #36, .T. ) ;
#115 = APPROVAL_ROLE ( '' ) ;
#116 = APPROVAL_ROLE ( '' ) ;
#117 =( NAMED_UNIT ( * ) SI_UNIT ( $, .STERADIAN. ) SOLID_ANGLE_UNIT ( ) );
#118 = EDGE_CURVE ( 'NONE', #180, #180, #170, .T. ) ;
#119 = AXIS2_PLACEMENT_3D ( 'NONE', #142, #154, #207 ) ;
#120 = ORIENTED_EDGE ( 'NONE', *, *, #47, .T. ) ;
#121 = AXIS2_PLACEMENT_3D ( 'NONE', #46, #12, #93 ) ;
#122 = CARTESIAN_POINT ( 'NONE',  ( 3.582192684931457223E-14, -1.256464056309100442E-15, 10.25980762113533196 ) ) ;
#123 = VERTEX_POINT ( 'NONE', #200 ) ;
#124 = AXIS2_PLACEMENT_3D ( 'NONE', #223, #69, #29 ) ;
#125 = DIRECTION ( 'NONE',  ( -3.491481338843133355E-15, 1.224646799147353207E-16, -1.000000000000000000 ) ) ;
#126 = DIRECTION ( 'NONE',  ( 3.491481338843133355E-15, -1.224646799147353207E-16, 1.000000000000000000 ) ) ;
#127 = CARTESIAN_POINT ( 'NONE',  ( 3.582192684931457223E-14, 0.7499999999999963363, 10.25980762113533196 ) ) ;
#128 = LOCAL_TIME ( 15, 47, 15.00000000000000000, #89 ) ;
#129 = FACE_BOUND ( 'NONE', #173, .T. ) ;
#130 = ADVANCED_FACE ( 'NONE', ( #63 ), #94, .F. ) ;
#131 = PERSON_AND_ORGANIZATION_ROLE ( 'creator' ) ;
#132 = AXIS2_PLACEMENT_3D ( 'NONE', #122, #194, #37 ) ;
#133 = COORDINATED_UNIVERSAL_TIME_OFFSET ( 1, 0, .AHEAD. ) ;
#134 = PERSON_AND_ORGANIZATION ( #57, #31 ) ;
#135 = ADVANCED_FACE ( 'NONE', ( #144 ), #183, .T. ) ;
#136 = UNCERTAINTY_MEASURE_WITH_UNIT (LENGTH_MEASURE( 1.000000000000000082E-05 ), #84, 'distance_accuracy_value', 'NONE');
#137 = FACE_OUTER_BOUND ( 'NONE', #158, .T. ) ;
#138 = CC_DESIGN_PERSON_AND_ORGANIZATION_ASSIGNMENT ( #190, #169, ( #96 ) ) ;
#139 = CIRCLE ( 'NONE', #121, 0.6000000000000001998 ) ;
#140 = DIRECTION ( 'NONE',  ( 0.0000000000000000000, 1.000000000000000000, 0.0000000000000000000 ) ) ;
#141 = APPROVAL ( #34, 'UNSPECIFIED' ) ;
#142 = CARTESIAN_POINT ( 'NONE',  ( 3.491481338843133355E-14, 4.499279347985556402E-33, 10.00000000000000000 ) ) ;
#143 = FACE_OUTER_BOUND ( 'NONE', #145, .T. ) ;
#144 = FACE_OUTER_BOUND ( 'NONE', #44, .T. ) ;
#145 = EDGE_LOOP ( 'NONE', ( #91 ) ) ;
#146 = DIRECTION ( 'NONE',  ( -3.491481338843133355E-15, 1.224646799147353207E-16, -1.000000000000000000 ) ) ;
#147 = DIRECTION ( 'NONE',  ( -3.491481338843133355E-15, 1.224646799147353207E-16, -1.000000000000000000 ) ) ;
#148 = APPLICATION_PROTOCOL_DEFINITION ( 'international standard', 'config_control_design', 1994, #187 ) ;
#149 = ADVANCED_FACE ( 'NONE', ( #67, #182 ), #24, .T. ) ;
#150 = ORIENTED_EDGE ( 'NONE', *, *, #114, .T. ) ;
#151 = DATE_AND_TIME ( #88, #49 ) ;
#152 = CIRCLE ( 'NONE', #208, 0.7500000000000000000 ) ;
#153 = CC_DESIGN_DATE_AND_TIME_ASSIGNMENT ( #189, #168, ( #55 ) ) ;
#154 = DIRECTION ( 'NONE',  ( 3.491481338843133355E-15, -1.224646799147353207E-16, 1.000000000000000000 ) ) ;
#155 = EDGE_LOOP ( 'NONE', ( #74 ) ) ;
#156 = ORIENTED_EDGE ( 'NONE', *, *, #90, .F. ) ;
#157 = DIRECTION ( 'NONE',  ( 3.209883240645399803E-31, 1.000000000000000000, 9.035018104045889183E-17 ) ) ;
#158 = EDGE_LOOP ( 'NONE', ( #19 ) ) ;
#159 = CARTESIAN_POINT ( 'NONE',  ( 3.491481338843133355E-14, 4.499279347985556402E-33, 10.00000000000000000 ) ) ;
#160 = DIRECTION ( 'NONE',  ( 3.491481338843133355E-15, -1.224646799147353207E-16, 1.000000000000000000 ) ) ;
#161 = AXIS2_PLACEMENT_3D ( 'NONE', #185, #98, #65 ) ;
#162 = ORIENTED_EDGE ( 'NONE', *, *, #114, .F. ) ;
#163 = FACE_OUTER_BOUND ( 'NONE', #179, .T. ) ;
#164 = VERTEX_POINT ( 'NONE', #219 ) ;
#165 = MECHANICAL_CONTEXT ( 'NONE', #187, 'mechanical' ) ;
#166 = APPROVAL_PERSON_ORGANIZATION ( #100, #141, #112 ) ;
#167 = PRODUCT ( '37016', '37016', '', ( #165 ) ) ;
#168 = DATE_TIME_ROLE ( 'creation_date' ) ;
#169 = PERSON_AND_ORGANIZATION_ROLE ( 'creator' ) ;
#170 = CIRCLE ( 'NONE', #202, 0.5999999999999987566 ) ;
#171 = CC_DESIGN_APPROVAL ( #176, ( #55 ) ) ;
#172 = APPROVAL_DATE_TIME ( #206, #184 ) ;
#173 = EDGE_LOOP ( 'NONE', ( #150 ) ) ;
#174 = CONICAL_SURFACE ( 'NONE', #79, 0.7499999999999976685, 0.5235987755982918213 ) ;
#175 = ORIENTED_EDGE ( 'NONE', *, *, #87, .T. ) ;
#176 = APPROVAL ( #101, 'UNSPECIFIED' ) ;
#177 = CC_DESIGN_APPROVAL ( #141, ( #214 ) ) ;
#178 = DIRECTION ( 'NONE',  ( 0.0000000000000000000, -1.000000000000000000, 0.0000000000000000000 ) ) ;
#179 = EDGE_LOOP ( 'NONE', ( #162 ) ) ;
#180 = VERTEX_POINT ( 'NONE', #8 ) ;
#181 = CYLINDRICAL_SURFACE ( 'NONE', #66, 0.7499999999999987788 ) ;
#182 = FACE_OUTER_BOUND ( 'NONE', #23, .T. ) ;
#183 = CONICAL_SURFACE ( 'NONE', #95, 0.5999999999999987566, 1.029744258676649649 ) ;
#184 = APPROVAL ( #205, 'UNSPECIFIED' ) ;
#185 = CARTESIAN_POINT ( 'NONE',  ( 1.047444401652940007E-13, -3.673940397442059178E-15, 30.00000000000000000 ) ) ;
#186 = COORDINATED_UNIVERSAL_TIME_OFFSET ( 1, 0, .AHEAD. ) ;
#187 = APPLICATION_CONTEXT ( 'configuration controlled 3d designs of mechanical parts and assemblies' ) ;
#188 = PERSON_AND_ORGANIZATION ( #57, #31 ) ;
#189 = DATE_AND_TIME ( #33, #26 ) ;
#190 = PERSON_AND_ORGANIZATION ( #57, #31 ) ;
#191 = COORDINATED_UNIVERSAL_TIME_OFFSET ( 1, 0, .AHEAD. ) ;
#192 = ADVANCED_FACE ( 'NONE', ( #143, #129 ), #110, .T. ) ;
#193 = APPROVAL_PERSON_ORGANIZATION ( #32, #176, #115 ) ;
#194 = DIRECTION ( 'NONE',  ( -3.491481338843133355E-15, 1.224646799147353207E-16, -1.000000000000000000 ) ) ;
#195 = VERTEX_POINT ( 'NONE', #50 ) ;
#196 = ADVANCED_FACE ( 'NONE', ( #7, #212 ), #181, .T. ) ;
#197 = FACE_OUTER_BOUND ( 'NONE', #41, .T. ) ;
#198 = CC_DESIGN_PERSON_AND_ORGANIZATION_ASSIGNMENT ( #15, #131, ( #55 ) ) ;
#199 = DIRECTION ( 'NONE',  ( 3.491481338843133355E-15, -1.224646799147353207E-16, 1.000000000000000000 ) ) ;
#200 = CARTESIAN_POINT ( 'NONE',  ( 3.491481338843133355E-14, 0.5999999999999989786, 10.00000000000000000 ) ) ;
#201 = CC_DESIGN_PERSON_AND_ORGANIZATION_ASSIGNMENT ( #188, #30, ( #214 ) ) ;
#202 = AXIS2_PLACEMENT_3D ( 'NONE', #105, #45, #157 ) ;
#203 = APPROVAL_DATE_TIME ( #68, #176 ) ;
#204 = AXIS2_PLACEMENT_3D ( 'NONE', #5, #211, #140 ) ;
#205 = APPROVAL_STATUS ( 'not_yet_approved' ) ;
#206 = DATE_AND_TIME ( #1, #56 ) ;
#207 = DIRECTION ( 'NONE',  ( -4.275831445896958607E-31, -1.000000000000000000, -1.224646799147353207E-16 ) ) ;
#208 = AXIS2_PLACEMENT_3D ( 'NONE', #78, #97, #215 ) ;
#209 = LOCAL_TIME ( 15, 47, 15.00000000000000000, #186 ) ;
#210 = FACE_BOUND ( 'NONE', #6, .T. ) ;
#211 = DIRECTION ( 'NONE',  ( -3.491481338843133355E-15, 1.224646799147353207E-16, -1.000000000000000000 ) ) ;
#212 = FACE_OUTER_BOUND ( 'NONE', #60, .T. ) ;
#213 = ADVANCED_FACE ( 'NONE', ( #163 ), #81, .F. ) ;
#214 = SECURITY_CLASSIFICATION ( '', '', #113 ) ;
#215 = DIRECTION ( 'NONE',  ( 0.0000000000000000000, 1.000000000000000000, 0.0000000000000000000 ) ) ;
#216 = CARTESIAN_POINT ( 'NONE',  ( 0.0000000000000000000, 0.0000000000000000000, 0.0000000000000000000 ) ) ;
#217 = ORIENTED_EDGE ( 'NONE', *, *, #21, .F. ) ;
#218 = DIRECTION ( 'NONE',  ( 4.275831445896958607E-31, 1.000000000000000000, 1.224646799147353207E-16 ) ) ;
#219 = CARTESIAN_POINT ( 'NONE',  ( 3.491481338843133355E-14, 0.5999999999999989786, 10.00000000000000000 ) ) ;
#220 = MANIFOLD_SOLID_BREP ( 'Corps-Déplacer/Copier1[2]', #52 ) ;
#221 = PERSON_AND_ORGANIZATION_ROLE ( 'design_owner' ) ;
#222 = DESIGN_CONTEXT ( 'detailed design', #40, 'design' ) ;
#223 = CARTESIAN_POINT ( 'NONE',  ( 0.0000000000000000000, 0.0000000000000000000, 0.0000000000000000000 ) ) ;
ENDSEC;
END-ISO-10303-21;
