ISO-10303-21;
HEADER;
FILE_DESCRIPTION (( 'STEP AP203' ),
    '1' );
FILE_NAME ('37015.step',
    '2021-10-07T13:47:15',
    ( '' ),
    ( '' ),
    'SwSTEP 2.0',
    'SolidWorks 2019',
    '' );
FILE_SCHEMA (( 'CONFIG_CONTROL_DESIGN' ));
ENDSEC;

DATA;
#1 = CARTESIAN_POINT ( 'NONE',  ( 0.0000000000000000000, 0.0000000000000000000, 0.0000000000000000000 ) ) ;
#2 = PERSON_AND_ORGANIZATION_ROLE ( 'design_supplier' ) ;
#3 = EDGE_LOOP ( 'NONE', ( #137 ) ) ;
#4 = PERSON_AND_ORGANIZATION ( #202, #128 ) ;
#5 = EDGE_LOOP ( 'NONE', ( #37 ) ) ;
#6 = COORDINATED_UNIVERSAL_TIME_OFFSET ( 1, 0, .AHEAD. ) ;
#7 = SECURITY_CLASSIFICATION ( '', '', #157 ) ;
#8 = CALENDAR_DATE ( 2021, 7, 10 ) ;
#9 = DIRECTION ( 'NONE',  ( 0.0000000000000000000, 1.000000000000000000, 0.0000000000000000000 ) ) ;
#10 = PRODUCT_RELATED_PRODUCT_CATEGORY ( 'detail', '', ( #200 ) ) ;
#11 = CC_DESIGN_APPROVAL ( #93, ( #7 ) ) ;
#12 = CIRCLE ( 'NONE', #76, 0.5949999999999988631 ) ;
#13 = CC_DESIGN_APPROVAL ( #177, ( #153 ) ) ;
#14 = VERTEX_POINT ( 'NONE', #110 ) ;
#15 = DIRECTION ( 'NONE',  ( 0.0000000000000000000, 1.000000000000000000, 0.0000000000000000000 ) ) ;
#16 = ADVANCED_FACE ( 'NONE', ( #130, #97 ), #52, .T. ) ;
#17 = DIRECTION ( 'NONE',  ( 3.491481338843133355E-15, -1.224646799147353207E-16, 1.000000000000000000 ) ) ;
#18 = EDGE_CURVE ( 'NONE', #163, #163, #12, .T. ) ;
#19 = DIRECTION ( 'NONE',  ( 4.275831445896958607E-31, 1.000000000000000000, 1.224646799147353207E-16 ) ) ;
#20 = DIRECTION ( 'NONE',  ( -4.275831445896958607E-31, -1.000000000000000000, -1.224646799147353207E-16 ) ) ;
#21 = DIRECTION ( 'NONE',  ( -3.491481338843133355E-15, 1.224646799147353207E-16, -1.000000000000000000 ) ) ;
#22 = ORIENTED_EDGE ( 'NONE', *, *, #119, .T. ) ;
#23 = DATE_AND_TIME ( #8, #121 ) ;
#24 = CIRCLE ( 'NONE', #196, 0.7500000000000000000 ) ;
#25 = ORIENTED_EDGE ( 'NONE', *, *, #18, .T. ) ;
#26 = COORDINATED_UNIVERSAL_TIME_OFFSET ( 1, 0, .AHEAD. ) ;
#27 = APPLICATION_PROTOCOL_DEFINITION ( 'international standard', 'config_control_design', 1994, #49 ) ;
#28 = CC_DESIGN_PERSON_AND_ORGANIZATION_ASSIGNMENT ( #4, #134, ( #153 ) ) ;
#29 = ORIENTED_EDGE ( 'NONE', *, *, #104, .T. ) ;
#30 = CARTESIAN_POINT ( 'NONE',  ( 0.0000000000000000000, 0.0000000000000000000, 0.0000000000000000000 ) ) ;
#31 = DIRECTION ( 'NONE',  ( 3.491481338843133355E-15, -1.224646799147353207E-16, 1.000000000000000000 ) ) ;
#32 = DIRECTION ( 'NONE',  ( -3.491481338843133355E-15, 1.224646799147353207E-16, -1.000000000000000000 ) ) ;
#33 = ADVANCED_FACE ( 'NONE', ( #105 ), #180, .F. ) ;
#34 = CARTESIAN_POINT ( 'NONE',  ( 1.047444401652940007E-13, 0.5499999999999964917, 30.00000000000000000 ) ) ;
#35 = PRODUCT_DEFINITION ( 'UNKNOWN', '', #153, #87 ) ;
#36 = FACE_OUTER_BOUND ( 'NONE', #101, .T. ) ;
#37 = ORIENTED_EDGE ( 'NONE', *, *, #48, .F. ) ;
#38 = APPLICATION_PROTOCOL_DEFINITION ( 'international standard', 'config_control_design', 1994, #216 ) ;
#39 = ORIENTED_EDGE ( 'NONE', *, *, #104, .F. ) ;
#40 = DATE_AND_TIME ( #214, #197 ) ;
#41 = CIRCLE ( 'NONE', #218, 0.5950000000000004174 ) ;
#42 = EDGE_LOOP ( 'NONE', ( #22 ) ) ;
#43 = PERSON_AND_ORGANIZATION_ROLE ( 'design_owner' ) ;
#44 = LOCAL_TIME ( 15, 47, 15.00000000000000000, #6 ) ;
#45 = CARTESIAN_POINT ( 'NONE',  ( 1.248246714955385103E-15, -4.378260101263543883E-17, 0.3575120683214016437 ) ) ;
#46 = CARTESIAN_POINT ( 'NONE',  ( 3.491481338843133355E-14, 4.461785353419011741E-33, 10.00000000000000000 ) ) ;
#47 = CC_DESIGN_SECURITY_CLASSIFICATION ( #7, ( #153 ) ) ;
#48 = EDGE_CURVE ( 'NONE', #14, #14, #24, .T. ) ;
#49 = APPLICATION_CONTEXT ( 'configuration controlled 3d designs of mechanical parts and assemblies' ) ;
#50 = CARTESIAN_POINT ( 'NONE',  ( 3.491481338843133355E-14, 4.461785353419011741E-33, 10.00000000000000000 ) ) ;
#51 = FACE_OUTER_BOUND ( 'NONE', #209, .T. ) ;
#52 = CONICAL_SURFACE ( 'NONE', #178, 0.5500000000000001554, 0.7853981633974510546 ) ;
#53 = AXIS2_PLACEMENT_3D ( 'NONE', #186, #223, #94 ) ;
#54 = DIRECTION ( 'NONE',  ( 3.491481338843133355E-15, -1.224646799147353207E-16, 1.000000000000000000 ) ) ;
#55 = EDGE_LOOP ( 'NONE', ( #172 ) ) ;
#56 = APPROVAL_DATE_TIME ( #23, #147 ) ;
#57 = ADVANCED_FACE ( 'NONE', ( #161, #204 ), #151, .T. ) ;
#58 = ORIENTED_EDGE ( 'NONE', *, *, #18, .F. ) ;
#59 = PERSON_AND_ORGANIZATION ( #202, #128 ) ;
#60 = CALENDAR_DATE ( 2021, 7, 10 ) ;
#61 = AXIS2_PLACEMENT_3D ( 'NONE', #30, #173, #159 ) ;
#62 = APPROVAL_DATE_TIME ( #40, #177 ) ;
#63 = DIRECTION ( 'NONE',  ( -3.491481338843133355E-15, 1.224646799147353207E-16, -1.000000000000000000 ) ) ;
#64 = CARTESIAN_POINT ( 'NONE',  ( 3.491481338843133355E-14, 0.5949999999999991962, 10.00000000000000000 ) ) ;
#65 = FACE_OUTER_BOUND ( 'NONE', #118, .T. ) ;
#66 = LOCAL_TIME ( 15, 47, 15.00000000000000000, #26 ) ;
#67 = DIRECTION ( 'NONE',  ( -3.491481338843133355E-15, 1.224646799147353207E-16, -1.000000000000000000 ) ) ;
#68 = CYLINDRICAL_SURFACE ( 'NONE', #81, 0.7499999999999987788 ) ;
#69 = CALENDAR_DATE ( 2021, 7, 10 ) ;
#70 = PERSON_AND_ORGANIZATION_ROLE ( 'classification_officer' ) ;
#71 = PERSON_AND_ORGANIZATION ( #202, #128 ) ;
#72 = APPROVAL_STATUS ( 'not_yet_approved' ) ;
#73 = AXIS2_PLACEMENT_3D ( 'NONE', #127, #112, #109 ) ;
#74 = DATE_AND_TIME ( #84, #169 ) ;
#75 = DIRECTION ( 'NONE',  ( 3.236857049390318375E-31, 1.000000000000000000, 9.110942625928625624E-17 ) ) ;
#76 = AXIS2_PLACEMENT_3D ( 'NONE', #45, #158, #75 ) ;
#77 = AXIS2_PLACEMENT_3D ( 'NONE', #50, #54, #20 ) ;
#78 = CARTESIAN_POINT ( 'NONE',  ( 0.0000000000000000000, 0.0000000000000000000, 0.0000000000000000000 ) ) ;
#79 = VERTEX_POINT ( 'NONE', #34 ) ;
#80 = CARTESIAN_POINT ( 'NONE',  ( 3.491481338843133355E-14, -1.224646799147353256E-15, 10.00000000000000000 ) ) ;
#81 = AXIS2_PLACEMENT_3D ( 'NONE', #78, #67, #129 ) ;
#82 = CC_DESIGN_DATE_AND_TIME_ASSIGNMENT ( #74, #138, ( #35 ) ) ;
#83 = CARTESIAN_POINT ( 'NONE',  ( 3.491481338843133355E-14, -1.224646799147353256E-15, 10.00000000000000000 ) ) ;
#84 = CALENDAR_DATE ( 2021, 7, 10 ) ;
#85 = CIRCLE ( 'NONE', #73, 0.7499999999999976685 ) ;
#86 = COORDINATED_UNIVERSAL_TIME_OFFSET ( 1, 0, .AHEAD. ) ;
#87 = DESIGN_CONTEXT ( 'detailed design', #216, 'design' ) ;
#88 = EDGE_LOOP ( 'NONE', ( #29 ) ) ;
#89 = DATE_AND_TIME ( #60, #66 ) ;
#90 = PERSON_AND_ORGANIZATION_ROLE ( 'creator' ) ;
#91 = CLOSED_SHELL ( 'NONE', ( #126, #57, #95 ) ) ;
#92 = EDGE_CURVE ( 'NONE', #79, #79, #185, .T. ) ;
#93 = APPROVAL ( #72, 'UNSPECIFIED' ) ;
#94 = DIRECTION ( 'NONE',  ( 0.0000000000000000000, 1.000000000000000000, 0.0000000000000000000 ) ) ;
#95 = ADVANCED_FACE ( 'NONE', ( #36 ), #170, .T. ) ;
#96 = DIRECTION ( 'NONE',  ( 0.0000000000000000000, 1.000000000000000000, 0.0000000000000000000 ) ) ;
#97 = FACE_BOUND ( 'NONE', #3, .T. ) ;
#98 = SHAPE_DEFINITION_REPRESENTATION ( #102, #115 ) ;
#99 = CC_DESIGN_PERSON_AND_ORGANIZATION_ASSIGNMENT ( #212, #43, ( #200 ) ) ;
#100 = PERSON_AND_ORGANIZATION ( #202, #128 ) ;
#101 = EDGE_LOOP ( 'NONE', ( #111 ) ) ;
#102 = PRODUCT_DEFINITION_SHAPE ( 'NONE', 'NONE',  #35 ) ;
#103 = CC_DESIGN_APPROVAL ( #147, ( #35 ) ) ;
#104 = EDGE_CURVE ( 'NONE', #219, #219, #41, .T. ) ;
#105 = FACE_OUTER_BOUND ( 'NONE', #88, .T. ) ;
#106 = VERTEX_POINT ( 'NONE', #187 ) ;
#107 = AXIS2_PLACEMENT_3D ( 'NONE', #205, #168, #207 ) ;
#108 =( NAMED_UNIT ( * ) PLANE_ANGLE_UNIT ( ) SI_UNIT ( $, .RADIAN. ) );
#109 = DIRECTION ( 'NONE',  ( 0.0000000000000000000, 1.000000000000000000, 0.0000000000000000000 ) ) ;
#110 = CARTESIAN_POINT ( 'NONE',  ( 1.040461438975253740E-13, 0.7499999999999963363, 29.80000000000000071 ) ) ;
#111 = ORIENTED_EDGE ( 'NONE', *, *, #119, .F. ) ;
#112 = DIRECTION ( 'NONE',  ( -3.491481338843133355E-15, 1.224646799147353207E-16, -1.000000000000000000 ) ) ;
#113 = CC_DESIGN_PERSON_AND_ORGANIZATION_ASSIGNMENT ( #141, #2, ( #153 ) ) ;
#114 = APPROVAL_ROLE ( '' ) ;
#115 = ADVANCED_BREP_SHAPE_REPRESENTATION ( '37015', ( #142, #144, #61 ), #164 ) ;
#116 = AXIS2_PLACEMENT_3D ( 'NONE', #1, #32, #148 ) ;
#117 = ORIENTED_EDGE ( 'NONE', *, *, #181, .F. ) ;
#118 = EDGE_LOOP ( 'NONE', ( #117 ) ) ;
#119 = EDGE_CURVE ( 'NONE', #125, #125, #198, .T. ) ;
#120 = COORDINATED_UNIVERSAL_TIME_OFFSET ( 1, 0, .AHEAD. ) ;
#121 = LOCAL_TIME ( 15, 47, 15.00000000000000000, #140 ) ;
#122 = ADVANCED_FACE ( 'NONE', ( #65, #189 ), #68, .T. ) ;
#123 = CLOSED_SHELL ( 'NONE', ( #33, #183, #122, #16, #184 ) ) ;
#124 = AXIS2_PLACEMENT_3D ( 'NONE', #83, #150, #15 ) ;
#125 = VERTEX_POINT ( 'NONE', #199 ) ;
#126 = ADVANCED_FACE ( 'NONE', ( #131 ), #133, .T. ) ;
#127 = CARTESIAN_POINT ( 'NONE',  ( 3.585216396467734727E-14, -1.257524631547825092E-15, 10.26846787517317594 ) ) ;
#128 = ORGANIZATION ( 'UNSPECIFIED', 'UNSPECIFIED', '' ) ;
#129 = DIRECTION ( 'NONE',  ( 4.275831445896959482E-31, 1.000000000000000000, 1.224646799147353207E-16 ) ) ;
#130 = FACE_OUTER_BOUND ( 'NONE', #5, .T. ) ;
#131 = FACE_OUTER_BOUND ( 'NONE', #194, .T. ) ;
#132 = CC_DESIGN_DATE_AND_TIME_ASSIGNMENT ( #136, #210, ( #7 ) ) ;
#133 = CONICAL_SURFACE ( 'NONE', #107, 0.5949999999999988631, 1.029744258676649649 ) ;
#134 = PERSON_AND_ORGANIZATION_ROLE ( 'creator' ) ;
#135 = ORIENTED_EDGE ( 'NONE', *, *, #181, .T. ) ;
#136 = DATE_AND_TIME ( #69, #44 ) ;
#137 = ORIENTED_EDGE ( 'NONE', *, *, #92, .T. ) ;
#138 = DATE_TIME_ROLE ( 'creation_date' ) ;
#139 = APPROVAL_PERSON_ORGANIZATION ( #59, #93, #195 ) ;
#140 = COORDINATED_UNIVERSAL_TIME_OFFSET ( 1, 0, .AHEAD. ) ;
#141 = PERSON_AND_ORGANIZATION ( #202, #128 ) ;
#142 = MANIFOLD_SOLID_BREP ( 'Corps-Déplacer/Copier1[1]', #123 ) ;
#143 = APPROVAL_PERSON_ORGANIZATION ( #71, #147, #114 ) ;
#144 = MANIFOLD_SOLID_BREP ( 'Corps-Déplacer/Copier1[2]', #91 ) ;
#145 = DIRECTION ( 'NONE',  ( 0.0000000000000000000, -1.000000000000000000, 0.0000000000000000000 ) ) ;
#146 = FACE_OUTER_BOUND ( 'NONE', #55, .T. ) ;
#147 = APPROVAL ( #155, 'UNSPECIFIED' ) ;
#148 = DIRECTION ( 'NONE',  ( 4.275831445896958607E-31, 1.000000000000000000, 1.224646799147353207E-16 ) ) ;
#149 =( NAMED_UNIT ( * ) SI_UNIT ( $, .STERADIAN. ) SOLID_ANGLE_UNIT ( ) );
#150 = DIRECTION ( 'NONE',  ( -3.491481338843133355E-15, 1.224646799147353207E-16, -1.000000000000000000 ) ) ;
#151 = CYLINDRICAL_SURFACE ( 'NONE', #116, 0.5949999999999996403 ) ;
#152 = EDGE_LOOP ( 'NONE', ( #154 ) ) ;
#153 = PRODUCT_DEFINITION_FORMATION_WITH_SPECIFIED_SOURCE ( 'ANY', '', #200, .NOT_KNOWN. ) ;
#154 = ORIENTED_EDGE ( 'NONE', *, *, #48, .T. ) ;
#155 = APPROVAL_STATUS ( 'not_yet_approved' ) ;
#156 = APPROVAL_DATE_TIME ( #89, #93 ) ;
#157 = SECURITY_CLASSIFICATION_LEVEL ( 'unclassified' ) ;
#158 = DIRECTION ( 'NONE',  ( -3.491481338843133355E-15, 1.224646799147353207E-16, -1.000000000000000000 ) ) ;
#159 = DIRECTION ( 'NONE',  ( 1.000000000000000000, 0.0000000000000000000, 0.0000000000000000000 ) ) ;
#160 = DIRECTION ( 'NONE',  ( -4.275831445896958607E-31, -1.000000000000000000, -1.224646799147353207E-16 ) ) ;
#161 = FACE_OUTER_BOUND ( 'NONE', #211, .T. ) ;
#162 = AXIS2_PLACEMENT_3D ( 'NONE', #46, #31, #160 ) ;
#163 = VERTEX_POINT ( 'NONE', #188 ) ;
#164 =( GEOMETRIC_REPRESENTATION_CONTEXT ( 3 ) GLOBAL_UNCERTAINTY_ASSIGNED_CONTEXT ( ( #182 ) ) GLOBAL_UNIT_ASSIGNED_CONTEXT ( ( #220, #108, #149 ) ) REPRESENTATION_CONTEXT ( 'NONE', 'WORKASPACE' ) );
#165 = CC_DESIGN_PERSON_AND_ORGANIZATION_ASSIGNMENT ( #100, #90, ( #35 ) ) ;
#166 = PLANE ( 'NONE',  #208 ) ;
#167 = DIRECTION ( 'NONE',  ( -3.491481338843133355E-15, 1.224646799147353207E-16, -1.000000000000000000 ) ) ;
#168 = DIRECTION ( 'NONE',  ( 3.491481338843133355E-15, -1.224646799147353207E-16, 1.000000000000000000 ) ) ;
#169 = LOCAL_TIME ( 15, 47, 15.00000000000000000, #120 ) ;
#170 = PLANE ( 'NONE',  #77 ) ;
#171 = CARTESIAN_POINT ( 'NONE',  ( 1.047444401652940007E-13, -3.673940397442059178E-15, 30.00000000000000000 ) ) ;
#172 = ORIENTED_EDGE ( 'NONE', *, *, #92, .F. ) ;
#173 = DIRECTION ( 'NONE',  ( 0.0000000000000000000, 0.0000000000000000000, 1.000000000000000000 ) ) ;
#174 = PERSON_AND_ORGANIZATION ( #202, #128 ) ;
#175 = APPROVAL_STATUS ( 'not_yet_approved' ) ;
#176 = PERSON_AND_ORGANIZATION ( #202, #128 ) ;
#177 = APPROVAL ( #175, 'UNSPECIFIED' ) ;
#178 = AXIS2_PLACEMENT_3D ( 'NONE', #171, #21, #206 ) ;
#179 = APPROVAL_PERSON_ORGANIZATION ( #174, #177, #192 ) ;
#180 = PLANE ( 'NONE',  #162 ) ;
#181 = EDGE_CURVE ( 'NONE', #106, #106, #85, .T. ) ;
#182 = UNCERTAINTY_MEASURE_WITH_UNIT (LENGTH_MEASURE( 1.000000000000000082E-05 ), #220, 'distance_accuracy_value', 'NONE');
#183 = ADVANCED_FACE ( 'NONE', ( #221, #51 ), #213, .T. ) ;
#184 = ADVANCED_FACE ( 'NONE', ( #146 ), #166, .F. ) ;
#185 = CIRCLE ( 'NONE', #53, 0.5500000000000001554 ) ;
#186 = CARTESIAN_POINT ( 'NONE',  ( 1.047444401652940007E-13, -3.673940397442059178E-15, 30.00000000000000000 ) ) ;
#187 = CARTESIAN_POINT ( 'NONE',  ( 3.585216396467734727E-14, 0.7499999999999963363, 10.26846787517317594 ) ) ;
#188 = CARTESIAN_POINT ( 'NONE',  ( 1.248246714955385300E-15, 0.5949999999999988631, 0.3575120683214016992 ) ) ;
#189 = FACE_OUTER_BOUND ( 'NONE', #152, .T. ) ;
#190 = EDGE_LOOP ( 'NONE', ( #39 ) ) ;
#191 = DIRECTION ( 'NONE',  ( -3.491481338843133355E-15, 1.224646799147353207E-16, -1.000000000000000000 ) ) ;
#192 = APPROVAL_ROLE ( '' ) ;
#193 = MECHANICAL_CONTEXT ( 'NONE', #49, 'mechanical' ) ;
#194 = EDGE_LOOP ( 'NONE', ( #25 ) ) ;
#195 = APPROVAL_ROLE ( '' ) ;
#196 = AXIS2_PLACEMENT_3D ( 'NONE', #215, #63, #9 ) ;
#197 = LOCAL_TIME ( 15, 47, 15.00000000000000000, #86 ) ;
#198 = CIRCLE ( 'NONE', #124, 0.5950000000000004174 ) ;
#199 = CARTESIAN_POINT ( 'NONE',  ( 3.491481338843133355E-14, 0.5949999999999991962, 10.00000000000000000 ) ) ;
#200 = PRODUCT ( '37015', '37015', '', ( #193 ) ) ;
#201 = CARTESIAN_POINT ( 'NONE',  ( 1.047444401652940007E-13, 4.124339402320053683E-33, 30.00000000000000000 ) ) ;
#202 = PERSON ( 'UNSPECIFIED', 'UNSPECIFIED', 'UNSPECIFIED', ('UNSPECIFIED'), ('UNSPECIFIED'), ('UNSPECIFIED') ) ;
#203 = CARTESIAN_POINT ( 'NONE',  ( 3.585216396467734727E-14, -1.257524631547825092E-15, 10.26846787517317594 ) ) ;
#204 = FACE_OUTER_BOUND ( 'NONE', #42, .T. ) ;
#205 = CARTESIAN_POINT ( 'NONE',  ( 1.248246714955385103E-15, -4.378260101263543883E-17, 0.3575120683214016437 ) ) ;
#206 = DIRECTION ( 'NONE',  ( 0.0000000000000000000, 1.000000000000000000, 0.0000000000000000000 ) ) ;
#207 = DIRECTION ( 'NONE',  ( -3.236857049390318375E-31, -1.000000000000000000, -9.110942625928625624E-17 ) ) ;
#208 = AXIS2_PLACEMENT_3D ( 'NONE', #201, #191, #19 ) ;
#209 = EDGE_LOOP ( 'NONE', ( #135 ) ) ;
#210 = DATE_TIME_ROLE ( 'classification_date' ) ;
#211 = EDGE_LOOP ( 'NONE', ( #58 ) ) ;
#212 = PERSON_AND_ORGANIZATION ( #202, #128 ) ;
#213 = CONICAL_SURFACE ( 'NONE', #222, 0.7499999999999976685, 0.5235987755982929315 ) ;
#214 = CALENDAR_DATE ( 2021, 7, 10 ) ;
#215 = CARTESIAN_POINT ( 'NONE',  ( 1.040461438975253740E-13, -3.649447461459112464E-15, 29.80000000000000071 ) ) ;
#216 = APPLICATION_CONTEXT ( 'configuration controlled 3d designs of mechanical parts and assemblies' ) ;
#217 = CC_DESIGN_PERSON_AND_ORGANIZATION_ASSIGNMENT ( #176, #70, ( #7 ) ) ;
#218 = AXIS2_PLACEMENT_3D ( 'NONE', #80, #167, #96 ) ;
#219 = VERTEX_POINT ( 'NONE', #64 ) ;
#220 =( LENGTH_UNIT ( ) NAMED_UNIT ( * ) SI_UNIT ( .MILLI., .METRE. ) );
#221 = FACE_BOUND ( 'NONE', #190, .T. ) ;
#222 = AXIS2_PLACEMENT_3D ( 'NONE', #203, #17, #145 ) ;
#223 = DIRECTION ( 'NONE',  ( -3.491481338843133355E-15, 1.224646799147353207E-16, -1.000000000000000000 ) ) ;
ENDSEC;
END-ISO-10303-21;
