ISO-10303-21;
HEADER;
FILE_DESCRIPTION (( 'STEP AP203' ),
    '1' );
FILE_NAME ('37014.step',
    '2021-10-07T13:47:14',
    ( '' ),
    ( '' ),
    'SwSTEP 2.0',
    'SolidWorks 2019',
    '' );
FILE_SCHEMA (( 'CONFIG_CONTROL_DESIGN' ));
ENDSEC;

DATA;
#1 = EDGE_CURVE ( 'NONE', #129, #129, #96, .T. ) ;
#2 = SECURITY_CLASSIFICATION_LEVEL ( 'unclassified' ) ;
#3 = DIRECTION ( 'NONE',  ( 1.000000000000000000, 0.0000000000000000000, 0.0000000000000000000 ) ) ;
#4 = CIRCLE ( 'NONE', #188, 0.5500000000000001554 ) ;
#5 = PERSON_AND_ORGANIZATION ( #202, #57 ) ;
#6 = APPLICATION_PROTOCOL_DEFINITION ( 'international standard', 'config_control_design', 1994, #17 ) ;
#7 = DIRECTION ( 'NONE',  ( 4.275831445896959482E-31, 1.000000000000000000, 1.224646799147353207E-16 ) ) ;
#8 = APPROVAL_PERSON_ORGANIZATION ( #78, #86, #28 ) ;
#9 = COORDINATED_UNIVERSAL_TIME_OFFSET ( 1, 0, .AHEAD. ) ;
#10 = ORIENTED_EDGE ( 'NONE', *, *, #181, .T. ) ;
#11 = CIRCLE ( 'NONE', #74, 0.5900000000000017453 ) ;
#12 = EDGE_CURVE ( 'NONE', #25, #25, #99, .T. ) ;
#13 = EDGE_LOOP ( 'NONE', ( #61 ) ) ;
#14 = EDGE_LOOP ( 'NONE', ( #133 ) ) ;
#15 = PRODUCT_RELATED_PRODUCT_CATEGORY ( 'detail', '', ( #211 ) ) ;
#16 = FACE_OUTER_BOUND ( 'NONE', #203, .T. ) ;
#17 = APPLICATION_CONTEXT ( 'configuration controlled 3d designs of mechanical parts and assemblies' ) ;
#18 = CARTESIAN_POINT ( 'NONE',  ( 3.142333204958820651E-14, -2.080180638672242497E-31, 9.000000000000001776 ) ) ;
#19 = CARTESIAN_POINT ( 'NONE',  ( 3.142333204958820651E-14, -1.102182119232617911E-15, 9.000000000000001776 ) ) ;
#20 = DATE_AND_TIME ( #169, #87 ) ;
#21 = APPROVAL_STATUS ( 'not_yet_approved' ) ;
#22 = PERSON_AND_ORGANIZATION_ROLE ( 'design_owner' ) ;
#23 = APPROVAL_PERSON_ORGANIZATION ( #156, #54, #126 ) ;
#24 = PERSON_AND_ORGANIZATION ( #202, #57 ) ;
#25 = VERTEX_POINT ( 'NONE', #92 ) ;
#26 = DIRECTION ( 'NONE',  ( 0.0000000000000000000, 1.000000000000000000, 0.0000000000000000000 ) ) ;
#27 = EDGE_CURVE ( 'NONE', #141, #141, #4, .T. ) ;
#28 = APPROVAL_ROLE ( '' ) ;
#29 = ORIENTED_EDGE ( 'NONE', *, *, #148, .F. ) ;
#30 = AXIS2_PLACEMENT_3D ( 'NONE', #91, #194, #7 ) ;
#31 = ADVANCED_FACE ( 'NONE', ( #98, #49 ), #165, .T. ) ;
#32 = DIRECTION ( 'NONE',  ( 0.0000000000000000000, 1.000000000000000000, 0.0000000000000000000 ) ) ;
#33 = DIRECTION ( 'NONE',  ( -3.491481338843133355E-15, 1.224646799147353207E-16, -1.000000000000000000 ) ) ;
#34 = PLANE ( 'NONE',  #221 ) ;
#35 = DIRECTION ( 'NONE',  ( 4.275831445896958607E-31, 1.000000000000000000, 1.224646799147353207E-16 ) ) ;
#36 = CARTESIAN_POINT ( 'NONE',  ( 3.239091974119698265E-14, 0.7499999999999963363, 9.277128129211019925 ) ) ;
#37 = COORDINATED_UNIVERSAL_TIME_OFFSET ( 1, 0, .AHEAD. ) ;
#38 = PERSON_AND_ORGANIZATION ( #202, #57 ) ;
#39 = CARTESIAN_POINT ( 'NONE',  ( 3.142333204958820651E-14, 0.5900000000000006350, 9.000000000000001776 ) ) ;
#40 = ORIENTED_EDGE ( 'NONE', *, *, #148, .T. ) ;
#41 = LOCAL_TIME ( 15, 47, 14.00000000000000000, #120 ) ;
#42 = CALENDAR_DATE ( 2021, 7, 10 ) ;
#43 = CALENDAR_DATE ( 2021, 7, 10 ) ;
#44 = AXIS2_PLACEMENT_3D ( 'NONE', #124, #153, #3 ) ;
#45 = FACE_OUTER_BOUND ( 'NONE', #13, .T. ) ;
#46 = CC_DESIGN_PERSON_AND_ORGANIZATION_ASSIGNMENT ( #177, #162, ( #76 ) ) ;
#47 = CYLINDRICAL_SURFACE ( 'NONE', #30, 0.7499999999999986677 ) ;
#48 = CONICAL_SURFACE ( 'NONE', #193, 0.5899999999999988587, 1.029744258676649649 ) ;
#49 = FACE_OUTER_BOUND ( 'NONE', #216, .T. ) ;
#50 = DIRECTION ( 'NONE',  ( -4.275831445896958607E-31, -1.000000000000000000, -1.224646799147353207E-16 ) ) ;
#51 = DIRECTION ( 'NONE',  ( 3.491481338843133355E-15, -1.224646799147353207E-16, 1.000000000000000000 ) ) ;
#52 = AXIS2_PLACEMENT_3D ( 'NONE', #186, #222, #150 ) ;
#53 = DIRECTION ( 'NONE',  ( -3.491481338843133355E-15, 1.224646799147353207E-16, -1.000000000000000000 ) ) ;
#54 = APPROVAL ( #21, 'UNSPECIFIED' ) ;
#55 = CARTESIAN_POINT ( 'NONE',  ( 1.047444401652940007E-13, 0.5499999999999964917, 30.00000000000000000 ) ) ;
#56 = APPLICATION_PROTOCOL_DEFINITION ( 'international standard', 'config_control_design', 1994, #103 ) ;
#57 = ORGANIZATION ( 'UNSPECIFIED', 'UNSPECIFIED', '' ) ;
#58 = FACE_OUTER_BOUND ( 'NONE', #178, .T. ) ;
#59 = DATE_TIME_ROLE ( 'creation_date' ) ;
#60 = AXIS2_PLACEMENT_3D ( 'NONE', #176, #192, #26 ) ;
#61 = ORIENTED_EDGE ( 'NONE', *, *, #179, .F. ) ;
#62 = ORIENTED_EDGE ( 'NONE', *, *, #179, .T. ) ;
#63 = ADVANCED_FACE ( 'NONE', ( #80 ), #48, .T. ) ;
#64 = MANIFOLD_SOLID_BREP ( 'Corps-Déplacer/Copier1[2]', #212 ) ;
#65 = PLANE ( 'NONE',  #67 ) ;
#66 = DIRECTION ( 'NONE',  ( 0.0000000000000000000, 1.000000000000000000, 0.0000000000000000000 ) ) ;
#67 = AXIS2_PLACEMENT_3D ( 'NONE', #18, #51, #50 ) ;
#68 = FACE_BOUND ( 'NONE', #223, .T. ) ;
#69 = CARTESIAN_POINT ( 'NONE',  ( 1.237757246762482820E-15, -4.341467999572253225E-17, 0.3545077652262638157 ) ) ;
#70 =( LENGTH_UNIT ( ) NAMED_UNIT ( * ) SI_UNIT ( .MILLI., .METRE. ) );
#71 = DATE_AND_TIME ( #106, #41 ) ;
#72 = APPROVAL_STATUS ( 'not_yet_approved' ) ;
#73 = FACE_BOUND ( 'NONE', #14, .T. ) ;
#74 = AXIS2_PLACEMENT_3D ( 'NONE', #157, #123, #110 ) ;
#75 = ORIENTED_EDGE ( 'NONE', *, *, #27, .F. ) ;
#76 = PRODUCT_DEFINITION_FORMATION_WITH_SPECIFIED_SOURCE ( 'ANY', '', #211, .NOT_KNOWN. ) ;
#77 = CC_DESIGN_DATE_AND_TIME_ASSIGNMENT ( #163, #59, ( #95 ) ) ;
#78 = PERSON_AND_ORGANIZATION ( #202, #57 ) ;
#79 = UNCERTAINTY_MEASURE_WITH_UNIT (LENGTH_MEASURE( 1.000000000000000082E-05 ), #70, 'distance_accuracy_value', 'NONE');
#80 = FACE_OUTER_BOUND ( 'NONE', #151, .T. ) ;
#81 = ORIENTED_EDGE ( 'NONE', *, *, #1, .F. ) ;
#82 = PLANE ( 'NONE',  #52 ) ;
#83 = CC_DESIGN_APPROVAL ( #86, ( #76 ) ) ;
#84 = DIRECTION ( 'NONE',  ( -3.264288041334304521E-31, -1.000000000000000000, -9.188154004114462552E-17 ) ) ;
#85 = DIRECTION ( 'NONE',  ( 4.275831445896958607E-31, 1.000000000000000000, 1.224646799147353207E-16 ) ) ;
#86 = APPROVAL ( #160, 'UNSPECIFIED' ) ;
#87 = LOCAL_TIME ( 15, 47, 14.00000000000000000, #37 ) ;
#88 = CARTESIAN_POINT ( 'NONE',  ( 1.040461438975253740E-13, 0.7499999999999963363, 29.80000000000000071 ) ) ;
#89 = PERSON_AND_ORGANIZATION_ROLE ( 'creator' ) ;
#90 = PERSON_AND_ORGANIZATION ( #202, #57 ) ;
#91 = CARTESIAN_POINT ( 'NONE',  ( 0.0000000000000000000, 0.0000000000000000000, 0.0000000000000000000 ) ) ;
#92 = CARTESIAN_POINT ( 'NONE',  ( 3.142333204958820651E-14, 0.5900000000000006350, 9.000000000000001776 ) ) ;
#93 = CC_DESIGN_APPROVAL ( #54, ( #219 ) ) ;
#94 = CC_DESIGN_APPROVAL ( #164, ( #95 ) ) ;
#95 = PRODUCT_DEFINITION ( 'UNKNOWN', '', #76, #171 ) ;
#96 = CIRCLE ( 'NONE', #200, 0.7500000000000000000 ) ;
#97 = ADVANCED_FACE ( 'NONE', ( #16 ), #82, .T. ) ;
#98 = FACE_OUTER_BOUND ( 'NONE', #204, .T. ) ;
#99 = CIRCLE ( 'NONE', #145, 0.5900000000000017453 ) ;
#100 = DIRECTION ( 'NONE',  ( -3.491481338843133355E-15, 1.224646799147353207E-16, -1.000000000000000000 ) ) ;
#101 = DIRECTION ( 'NONE',  ( -3.491481338843133355E-15, 1.224646799147353207E-16, -1.000000000000000000 ) ) ;
#102 = CARTESIAN_POINT ( 'NONE',  ( 1.237757246762482820E-15, -4.341467999572253225E-17, 0.3545077652262638157 ) ) ;
#103 = APPLICATION_CONTEXT ( 'configuration controlled 3d designs of mechanical parts and assemblies' ) ;
#104 = APPROVAL_DATE_TIME ( #20, #54 ) ;
#105 = ADVANCED_FACE ( 'NONE', ( #68, #116 ), #196, .T. ) ;
#106 = CALENDAR_DATE ( 2021, 7, 10 ) ;
#107 = VERTEX_POINT ( 'NONE', #189 ) ;
#108 = AXIS2_PLACEMENT_3D ( 'NONE', #138, #100, #85 ) ;
#109 = DATE_TIME_ROLE ( 'classification_date' ) ;
#110 = DIRECTION ( 'NONE',  ( 0.0000000000000000000, 1.000000000000000000, 0.0000000000000000000 ) ) ;
#111 = EDGE_LOOP ( 'NONE', ( #62 ) ) ;
#112 = CIRCLE ( 'NONE', #60, 0.7499999999999974465 ) ;
#113 = CC_DESIGN_PERSON_AND_ORGANIZATION_ASSIGNMENT ( #213, #143, ( #76 ) ) ;
#114 = APPROVAL_DATE_TIME ( #217, #86 ) ;
#115 = CLOSED_SHELL ( 'NONE', ( #122, #105, #158, #173, #144 ) ) ;
#116 = FACE_OUTER_BOUND ( 'NONE', #111, .T. ) ;
#117 = DIRECTION ( 'NONE',  ( -3.491481338843133355E-15, 1.224646799147353207E-16, -1.000000000000000000 ) ) ;
#118 = DIRECTION ( 'NONE',  ( 3.491481338843133355E-15, -1.224646799147353207E-16, 1.000000000000000000 ) ) ;
#119 = DIRECTION ( 'NONE',  ( -3.491481338843133355E-15, 1.224646799147353207E-16, -1.000000000000000000 ) ) ;
#120 = COORDINATED_UNIVERSAL_TIME_OFFSET ( 1, 0, .AHEAD. ) ;
#121 = EDGE_LOOP ( 'NONE', ( #75 ) ) ;
#122 = ADVANCED_FACE ( 'NONE', ( #137 ), #65, .F. ) ;
#123 = DIRECTION ( 'NONE',  ( -3.491481338843133355E-15, 1.224646799147353207E-16, -1.000000000000000000 ) ) ;
#124 = CARTESIAN_POINT ( 'NONE',  ( 0.0000000000000000000, 0.0000000000000000000, 0.0000000000000000000 ) ) ;
#125 = CALENDAR_DATE ( 2021, 7, 10 ) ;
#126 = APPROVAL_ROLE ( '' ) ;
#127 = AXIS2_PLACEMENT_3D ( 'NONE', #102, #170, #198 ) ;
#128 = APPROVAL_DATE_TIME ( #175, #164 ) ;
#129 = VERTEX_POINT ( 'NONE', #88 ) ;
#130 = CC_DESIGN_PERSON_AND_ORGANIZATION_ASSIGNMENT ( #24, #89, ( #95 ) ) ;
#131 = AXIS2_PLACEMENT_3D ( 'NONE', #152, #220, #132 ) ;
#132 = DIRECTION ( 'NONE',  ( 0.0000000000000000000, -1.000000000000000000, 0.0000000000000000000 ) ) ;
#133 = ORIENTED_EDGE ( 'NONE', *, *, #27, .T. ) ;
#134 = CC_DESIGN_DATE_AND_TIME_ASSIGNMENT ( #71, #109, ( #219 ) ) ;
#135 = ADVANCED_BREP_SHAPE_REPRESENTATION ( '37014', ( #209, #64, #44 ), #197 ) ;
#136 = ORIENTED_EDGE ( 'NONE', *, *, #12, .T. ) ;
#137 = FACE_OUTER_BOUND ( 'NONE', #185, .T. ) ;
#138 = CARTESIAN_POINT ( 'NONE',  ( 0.0000000000000000000, 0.0000000000000000000, 0.0000000000000000000 ) ) ;
#139 =( NAMED_UNIT ( * ) PLANE_ANGLE_UNIT ( ) SI_UNIT ( $, .RADIAN. ) );
#140 = APPROVAL_ROLE ( '' ) ;
#141 = VERTEX_POINT ( 'NONE', #55 ) ;
#142 = CARTESIAN_POINT ( 'NONE',  ( 1.047444401652940007E-13, -3.673940397442059178E-15, 30.00000000000000000 ) ) ;
#143 = PERSON_AND_ORGANIZATION_ROLE ( 'design_supplier' ) ;
#144 = ADVANCED_FACE ( 'NONE', ( #199 ), #34, .F. ) ;
#145 = AXIS2_PLACEMENT_3D ( 'NONE', #19, #117, #147 ) ;
#146 = LOCAL_TIME ( 15, 47, 14.00000000000000000, #9 ) ;
#147 = DIRECTION ( 'NONE',  ( 0.0000000000000000000, 1.000000000000000000, 0.0000000000000000000 ) ) ;
#148 = EDGE_CURVE ( 'NONE', #107, #107, #174, .T. ) ;
#149 = CARTESIAN_POINT ( 'NONE',  ( 1.040461438975253740E-13, -3.649447461459112464E-15, 29.80000000000000071 ) ) ;
#150 = DIRECTION ( 'NONE',  ( -4.275831445896958607E-31, -1.000000000000000000, -1.224646799147353207E-16 ) ) ;
#151 = EDGE_LOOP ( 'NONE', ( #40 ) ) ;
#152 = CARTESIAN_POINT ( 'NONE',  ( 3.239091974119698265E-14, -1.136120526871814790E-15, 9.277128129211019925 ) ) ;
#153 = DIRECTION ( 'NONE',  ( 0.0000000000000000000, 0.0000000000000000000, 1.000000000000000000 ) ) ;
#154 = AXIS2_PLACEMENT_3D ( 'NONE', #142, #53, #208 ) ;
#155 = VERTEX_POINT ( 'NONE', #39 ) ;
#156 = PERSON_AND_ORGANIZATION ( #202, #57 ) ;
#157 = CARTESIAN_POINT ( 'NONE',  ( 3.142333204958820651E-14, -1.102182119232617911E-15, 9.000000000000001776 ) ) ;
#158 = ADVANCED_FACE ( 'NONE', ( #45, #182 ), #47, .T. ) ;
#159 = COORDINATED_UNIVERSAL_TIME_OFFSET ( 1, 0, .AHEAD. ) ;
#160 = APPROVAL_STATUS ( 'not_yet_approved' ) ;
#161 = EDGE_LOOP ( 'NONE', ( #166 ) ) ;
#162 = PERSON_AND_ORGANIZATION_ROLE ( 'creator' ) ;
#163 = DATE_AND_TIME ( #43, #215 ) ;
#164 = APPROVAL ( #72, 'UNSPECIFIED' ) ;
#165 = CYLINDRICAL_SURFACE ( 'NONE', #108, 0.5900000000000003020 ) ;
#166 = ORIENTED_EDGE ( 'NONE', *, *, #1, .T. ) ;
#167 = ORIENTED_EDGE ( 'NONE', *, *, #181, .F. ) ;
#168 = CONICAL_SURFACE ( 'NONE', #154, 0.5500000000000001554, 0.7853981633974510546 ) ;
#169 = CALENDAR_DATE ( 2021, 7, 10 ) ;
#170 = DIRECTION ( 'NONE',  ( -3.491481338843133355E-15, 1.224646799147353207E-16, -1.000000000000000000 ) ) ;
#171 = DESIGN_CONTEXT ( 'detailed design', #103, 'design' ) ;
#172 = MECHANICAL_CONTEXT ( 'NONE', #17, 'mechanical' ) ;
#173 = ADVANCED_FACE ( 'NONE', ( #58, #73 ), #168, .T. ) ;
#174 = CIRCLE ( 'NONE', #127, 0.5899999999999988587 ) ;
#175 = DATE_AND_TIME ( #125, #180 ) ;
#176 = CARTESIAN_POINT ( 'NONE',  ( 3.239091974119698265E-14, -1.136120526871814790E-15, 9.277128129211019925 ) ) ;
#177 = PERSON_AND_ORGANIZATION ( #202, #57 ) ;
#178 = EDGE_LOOP ( 'NONE', ( #81 ) ) ;
#179 = EDGE_CURVE ( 'NONE', #195, #195, #112, .T. ) ;
#180 = LOCAL_TIME ( 15, 47, 14.00000000000000000, #210 ) ;
#181 = EDGE_CURVE ( 'NONE', #155, #155, #11, .T. ) ;
#182 = FACE_OUTER_BOUND ( 'NONE', #161, .T. ) ;
#183 = APPROVAL_PERSON_ORGANIZATION ( #5, #164, #140 ) ;
#184 = CARTESIAN_POINT ( 'NONE',  ( 1.047444401652940007E-13, -3.673940397442059178E-15, 30.00000000000000000 ) ) ;
#185 = EDGE_LOOP ( 'NONE', ( #10 ) ) ;
#186 = CARTESIAN_POINT ( 'NONE',  ( 3.142333204958820651E-14, -2.080180638672242497E-31, 9.000000000000001776 ) ) ;
#187 = CARTESIAN_POINT ( 'NONE',  ( 1.047444401652940007E-13, 4.124339402320053683E-33, 30.00000000000000000 ) ) ;
#188 = AXIS2_PLACEMENT_3D ( 'NONE', #184, #119, #32 ) ;
#189 = CARTESIAN_POINT ( 'NONE',  ( 1.237757246762483017E-15, 0.5899999999999988587, 0.3545077652262638712 ) ) ;
#190 = SHAPE_DEFINITION_REPRESENTATION ( #191, #135 ) ;
#191 = PRODUCT_DEFINITION_SHAPE ( 'NONE', 'NONE',  #95 ) ;
#192 = DIRECTION ( 'NONE',  ( -3.491481338843133355E-15, 1.224646799147353207E-16, -1.000000000000000000 ) ) ;
#193 = AXIS2_PLACEMENT_3D ( 'NONE', #69, #118, #84 ) ;
#194 = DIRECTION ( 'NONE',  ( -3.491481338843133355E-15, 1.224646799147353207E-16, -1.000000000000000000 ) ) ;
#195 = VERTEX_POINT ( 'NONE', #36 ) ;
#196 = CONICAL_SURFACE ( 'NONE', #131, 0.7499999999999974465, 0.5235987755982902669 ) ;
#197 =( GEOMETRIC_REPRESENTATION_CONTEXT ( 3 ) GLOBAL_UNCERTAINTY_ASSIGNED_CONTEXT ( ( #79 ) ) GLOBAL_UNIT_ASSIGNED_CONTEXT ( ( #70, #139, #205 ) ) REPRESENTATION_CONTEXT ( 'NONE', 'WORKASPACE' ) );
#198 = DIRECTION ( 'NONE',  ( 3.264288041334304521E-31, 1.000000000000000000, 9.188154004114462552E-17 ) ) ;
#199 = FACE_OUTER_BOUND ( 'NONE', #121, .T. ) ;
#200 = AXIS2_PLACEMENT_3D ( 'NONE', #149, #33, #66 ) ;
#201 = ORIENTED_EDGE ( 'NONE', *, *, #12, .F. ) ;
#202 = PERSON ( 'UNSPECIFIED', 'UNSPECIFIED', 'UNSPECIFIED', ('UNSPECIFIED'), ('UNSPECIFIED'), ('UNSPECIFIED') ) ;
#203 = EDGE_LOOP ( 'NONE', ( #201 ) ) ;
#204 = EDGE_LOOP ( 'NONE', ( #29 ) ) ;
#205 =( NAMED_UNIT ( * ) SI_UNIT ( $, .STERADIAN. ) SOLID_ANGLE_UNIT ( ) );
#206 = CC_DESIGN_PERSON_AND_ORGANIZATION_ASSIGNMENT ( #38, #22, ( #211 ) ) ;
#207 = PERSON_AND_ORGANIZATION_ROLE ( 'classification_officer' ) ;
#208 = DIRECTION ( 'NONE',  ( 0.0000000000000000000, 1.000000000000000000, 0.0000000000000000000 ) ) ;
#209 = MANIFOLD_SOLID_BREP ( 'Corps-Déplacer/Copier1[1]', #115 ) ;
#210 = COORDINATED_UNIVERSAL_TIME_OFFSET ( 1, 0, .AHEAD. ) ;
#211 = PRODUCT ( '37014', '37014', '', ( #172 ) ) ;
#212 = CLOSED_SHELL ( 'NONE', ( #63, #31, #97 ) ) ;
#213 = PERSON_AND_ORGANIZATION ( #202, #57 ) ;
#214 = CC_DESIGN_PERSON_AND_ORGANIZATION_ASSIGNMENT ( #90, #207, ( #219 ) ) ;
#215 = LOCAL_TIME ( 15, 47, 14.00000000000000000, #159 ) ;
#216 = EDGE_LOOP ( 'NONE', ( #136 ) ) ;
#217 = DATE_AND_TIME ( #42, #146 ) ;
#218 = CC_DESIGN_SECURITY_CLASSIFICATION ( #219, ( #76 ) ) ;
#219 = SECURITY_CLASSIFICATION ( '', '', #2 ) ;
#220 = DIRECTION ( 'NONE',  ( 3.491481338843133355E-15, -1.224646799147353207E-16, 1.000000000000000000 ) ) ;
#221 = AXIS2_PLACEMENT_3D ( 'NONE', #187, #101, #35 ) ;
#222 = DIRECTION ( 'NONE',  ( 3.491481338843133355E-15, -1.224646799147353207E-16, 1.000000000000000000 ) ) ;
#223 = EDGE_LOOP ( 'NONE', ( #167 ) ) ;
ENDSEC;
END-ISO-10303-21;
