ISO-10303-21;
HEADER;
FILE_DESCRIPTION (( 'STEP AP203' ),
    '1' );
FILE_NAME ('37013.step',
    '2021-10-07T13:47:14',
    ( '' ),
    ( '' ),
    'SwSTEP 2.0',
    'SolidWorks 2019',
    '' );
FILE_SCHEMA (( 'CONFIG_CONTROL_DESIGN' ));
ENDSEC;

DATA;
#1 = ADVANCED_FACE ( 'NONE', ( #79, #187 ), #100, .T. ) ;
#2 = DIRECTION ( 'NONE',  ( -3.491481338843133355E-15, 1.224646799147353207E-16, -1.000000000000000000 ) ) ;
#3 = PERSON_AND_ORGANIZATION ( #214, #137 ) ;
#4 = ADVANCED_BREP_SHAPE_REPRESENTATION ( '37013', ( #215, #59, #17 ), #81 ) ;
#5 =( NAMED_UNIT ( * ) PLANE_ANGLE_UNIT ( ) SI_UNIT ( $, .RADIAN. ) );
#6 = DATE_TIME_ROLE ( 'creation_date' ) ;
#7 = CALENDAR_DATE ( 2021, 7, 10 ) ;
#8 = PERSON_AND_ORGANIZATION ( #214, #137 ) ;
#9 = FACE_OUTER_BOUND ( 'NONE', #13, .T. ) ;
#10 = EDGE_CURVE ( 'NONE', #82, #82, #73, .T. ) ;
#11 = DIRECTION ( 'NONE',  ( -3.491481338843133355E-15, 1.224646799147353207E-16, -1.000000000000000000 ) ) ;
#12 = ORIENTED_EDGE ( 'NONE', *, *, #155, .F. ) ;
#13 = EDGE_LOOP ( 'NONE', ( #160 ) ) ;
#14 = DIRECTION ( 'NONE',  ( -3.491481338843133355E-15, 1.224646799147353207E-16, -1.000000000000000000 ) ) ;
#15 = AXIS2_PLACEMENT_3D ( 'NONE', #182, #14, #142 ) ;
#16 = CLOSED_SHELL ( 'NONE', ( #93, #103, #1, #161, #120 ) ) ;
#17 = AXIS2_PLACEMENT_3D ( 'NONE', #67, #36, #189 ) ;
#18 = COORDINATED_UNIVERSAL_TIME_OFFSET ( 1, 0, .AHEAD. ) ;
#19 = DIRECTION ( 'NONE',  ( 0.0000000000000000000, 1.000000000000000000, 0.0000000000000000000 ) ) ;
#20 = APPLICATION_CONTEXT ( 'configuration controlled 3d designs of mechanical parts and assemblies' ) ;
#21 = DIRECTION ( 'NONE',  ( 0.0000000000000000000, 1.000000000000000000, 0.0000000000000000000 ) ) ;
#22 = CARTESIAN_POINT ( 'NONE',  ( 3.142333204958820020E-14, 0.5849999999999996314, 9.000000000000000000 ) ) ;
#23 = PERSON_AND_ORGANIZATION ( #214, #137 ) ;
#24 = APPROVAL_STATUS ( 'not_yet_approved' ) ;
#25 = ORIENTED_EDGE ( 'NONE', *, *, #66, .F. ) ;
#26 = CC_DESIGN_DATE_AND_TIME_ASSIGNMENT ( #90, #6, ( #139 ) ) ;
#27 = DATE_AND_TIME ( #7, #156 ) ;
#28 = DIRECTION ( 'NONE',  ( 0.0000000000000000000, 1.000000000000000000, 0.0000000000000000000 ) ) ;
#29 = EDGE_LOOP ( 'NONE', ( #173 ) ) ;
#30 = CARTESIAN_POINT ( 'NONE',  ( 3.142333204958820020E-14, 4.386797364285923103E-33, 9.000000000000000000 ) ) ;
#31 = EDGE_CURVE ( 'NONE', #209, #209, #87, .T. ) ;
#32 = DIRECTION ( 'NONE',  ( -4.275831445896958607E-31, -1.000000000000000000, -1.224646799147353207E-16 ) ) ;
#33 = CARTESIAN_POINT ( 'NONE',  ( 3.242115685655975138E-14, 0.7499999999999963363, 9.285788383248862132 ) ) ;
#34 = AXIS2_PLACEMENT_3D ( 'NONE', #217, #222, #78 ) ;
#35 = FACE_BOUND ( 'NONE', #77, .T. ) ;
#36 = DIRECTION ( 'NONE',  ( 0.0000000000000000000, 0.0000000000000000000, 1.000000000000000000 ) ) ;
#37 = APPLICATION_CONTEXT ( 'configuration controlled 3d designs of mechanical parts and assemblies' ) ;
#38 = DIRECTION ( 'NONE',  ( 0.0000000000000000000, 1.000000000000000000, 0.0000000000000000000 ) ) ;
#39 = ADVANCED_FACE ( 'NONE', ( #180 ), #144, .T. ) ;
#40 = SECURITY_CLASSIFICATION ( '', '', #95 ) ;
#41 = APPROVAL_DATE_TIME ( #194, #108 ) ;
#42 = EDGE_LOOP ( 'NONE', ( #25 ) ) ;
#43 = PRODUCT ( '37013', '37013', '', ( #55 ) ) ;
#44 = PERSON_AND_ORGANIZATION ( #214, #137 ) ;
#45 = ORIENTED_EDGE ( 'NONE', *, *, #145, .T. ) ;
#46 = AXIS2_PLACEMENT_3D ( 'NONE', #129, #198, #28 ) ;
#47 = CARTESIAN_POINT ( 'NONE',  ( 0.0000000000000000000, 0.0000000000000000000, 0.0000000000000000000 ) ) ;
#48 = CC_DESIGN_DATE_AND_TIME_ASSIGNMENT ( #109, #154, ( #40 ) ) ;
#49 = FACE_OUTER_BOUND ( 'NONE', #80, .T. ) ;
#50 = CARTESIAN_POINT ( 'NONE',  ( 3.142333204958820020E-14, -1.102182119232617714E-15, 9.000000000000000000 ) ) ;
#51 = DIRECTION ( 'NONE',  ( -3.491481338843133355E-15, 1.224646799147353207E-16, -1.000000000000000000 ) ) ;
#52 = DIRECTION ( 'NONE',  ( -3.491481338843133355E-15, 1.224646799147353207E-16, -1.000000000000000000 ) ) ;
#53 = CARTESIAN_POINT ( 'NONE',  ( 1.047444401652940007E-13, -3.673940397442059178E-15, 30.00000000000000000 ) ) ;
#54 = COORDINATED_UNIVERSAL_TIME_OFFSET ( 1, 0, .AHEAD. ) ;
#55 = MECHANICAL_CONTEXT ( 'NONE', #37, 'mechanical' ) ;
#56 = APPROVAL_ROLE ( '' ) ;
#57 = APPROVAL_PERSON_ORGANIZATION ( #92, #212, #56 ) ;
#58 = ORIENTED_EDGE ( 'NONE', *, *, #145, .F. ) ;
#59 = MANIFOLD_SOLID_BREP ( 'Corps-Déplacer/Copier1[2]', #111 ) ;
#60 = FACE_OUTER_BOUND ( 'NONE', #96, .T. ) ;
#61 = CC_DESIGN_PERSON_AND_ORGANIZATION_ASSIGNMENT ( #23, #89, ( #139 ) ) ;
#62 = DIRECTION ( 'NONE',  ( -3.491481338843133355E-15, 1.224646799147353207E-16, -1.000000000000000000 ) ) ;
#63 = FACE_OUTER_BOUND ( 'NONE', #202, .T. ) ;
#64 = DIRECTION ( 'NONE',  ( -4.275831445896958607E-31, -1.000000000000000000, -1.224646799147353207E-16 ) ) ;
#65 =( NAMED_UNIT ( * ) SI_UNIT ( $, .STERADIAN. ) SOLID_ANGLE_UNIT ( ) );
#66 = EDGE_CURVE ( 'NONE', #151, #151, #72, .T. ) ;
#67 = CARTESIAN_POINT ( 'NONE',  ( 0.0000000000000000000, 0.0000000000000000000, 0.0000000000000000000 ) ) ;
#68 = DIRECTION ( 'NONE',  ( 0.0000000000000000000, 1.000000000000000000, 0.0000000000000000000 ) ) ;
#69 = LOCAL_TIME ( 15, 47, 14.00000000000000000, #141 ) ;
#70 = CARTESIAN_POINT ( 'NONE',  ( 3.142333204958820020E-14, 0.5849999999999996314, 9.000000000000000000 ) ) ;
#71 = PERSON_AND_ORGANIZATION_ROLE ( 'classification_officer' ) ;
#72 = CIRCLE ( 'NONE', #46, 0.7499999999999974465 ) ;
#73 = CIRCLE ( 'NONE', #185, 0.5850000000000006306 ) ;
#74 = ADVANCED_FACE ( 'NONE', ( #60 ), #150, .T. ) ;
#75 = SHAPE_DEFINITION_REPRESENTATION ( #157, #4 ) ;
#76 = APPROVAL_STATUS ( 'not_yet_approved' ) ;
#77 = EDGE_LOOP ( 'NONE', ( #211 ) ) ;
#78 = DIRECTION ( 'NONE',  ( 4.275831445896959482E-31, 1.000000000000000000, 1.224646799147353207E-16 ) ) ;
#79 = FACE_OUTER_BOUND ( 'NONE', #42, .T. ) ;
#80 = EDGE_LOOP ( 'NONE', ( #146 ) ) ;
#81 =( GEOMETRIC_REPRESENTATION_CONTEXT ( 3 ) GLOBAL_UNCERTAINTY_ASSIGNED_CONTEXT ( ( #132 ) ) GLOBAL_UNIT_ASSIGNED_CONTEXT ( ( #207, #5, #65 ) ) REPRESENTATION_CONTEXT ( 'NONE', 'WORKASPACE' ) );
#82 = VERTEX_POINT ( 'NONE', #70 ) ;
#83 = FACE_OUTER_BOUND ( 'NONE', #113, .T. ) ;
#84 = CC_DESIGN_PERSON_AND_ORGANIZATION_ASSIGNMENT ( #172, #143, ( #107 ) ) ;
#85 = PERSON_AND_ORGANIZATION_ROLE ( 'design_owner' ) ;
#86 = LOCAL_TIME ( 15, 47, 14.00000000000000000, #18 ) ;
#87 = CIRCLE ( 'NONE', #15, 0.5849999999999989653 ) ;
#88 = AXIS2_PLACEMENT_3D ( 'NONE', #169, #52, #68 ) ;
#89 = PERSON_AND_ORGANIZATION_ROLE ( 'creator' ) ;
#90 = DATE_AND_TIME ( #102, #86 ) ;
#91 = CONICAL_SURFACE ( 'NONE', #219, 0.5500000000000001554, 0.7853981633974510546 ) ;
#92 = PERSON_AND_ORGANIZATION ( #214, #137 ) ;
#93 = ADVANCED_FACE ( 'NONE', ( #94 ), #134, .F. ) ;
#94 = FACE_OUTER_BOUND ( 'NONE', #216, .T. ) ;
#95 = SECURITY_CLASSIFICATION_LEVEL ( 'unclassified' ) ;
#96 = EDGE_LOOP ( 'NONE', ( #118 ) ) ;
#97 = CARTESIAN_POINT ( 'NONE',  ( 3.242115685655975138E-14, -1.137181102110539637E-15, 9.285788383248862132 ) ) ;
#98 = EDGE_LOOP ( 'NONE', ( #45 ) ) ;
#99 = ADVANCED_FACE ( 'NONE', ( #9, #204 ), #199, .T. ) ;
#100 = CYLINDRICAL_SURFACE ( 'NONE', #34, 0.7499999999999986677 ) ;
#101 = AXIS2_PLACEMENT_3D ( 'NONE', #104, #192, #19 ) ;
#102 = CALENDAR_DATE ( 2021, 7, 10 ) ;
#103 = ADVANCED_FACE ( 'NONE', ( #201, #49 ), #195, .T. ) ;
#104 = CARTESIAN_POINT ( 'NONE',  ( 3.142333204958820020E-14, -1.102182119232617714E-15, 9.000000000000000000 ) ) ;
#105 = APPROVAL_PERSON_ORGANIZATION ( #3, #108, #208 ) ;
#106 = CARTESIAN_POINT ( 'NONE',  ( 1.227267778569580734E-15, 0.5849999999999989653, 0.3515034621311260432 ) ) ;
#107 = PRODUCT_DEFINITION_FORMATION_WITH_SPECIFIED_SOURCE ( 'ANY', '', #43, .NOT_KNOWN. ) ;
#108 = APPROVAL ( #190, 'UNSPECIFIED' ) ;
#109 = DATE_AND_TIME ( #197, #69 ) ;
#110 = CALENDAR_DATE ( 2021, 7, 10 ) ;
#111 = CLOSED_SHELL ( 'NONE', ( #74, #99, #39 ) ) ;
#112 = AXIS2_PLACEMENT_3D ( 'NONE', #47, #62, #114 ) ;
#113 = EDGE_LOOP ( 'NONE', ( #12 ) ) ;
#114 = DIRECTION ( 'NONE',  ( 4.275831445896958607E-31, 1.000000000000000000, 1.224646799147353207E-16 ) ) ;
#115 = EDGE_LOOP ( 'NONE', ( #196 ) ) ;
#116 = CC_DESIGN_APPROVAL ( #206, ( #107 ) ) ;
#117 = DIRECTION ( 'NONE',  ( 3.491481338843133355E-15, -1.224646799147353207E-16, 1.000000000000000000 ) ) ;
#118 = ORIENTED_EDGE ( 'NONE', *, *, #31, .T. ) ;
#119 = CARTESIAN_POINT ( 'NONE',  ( 1.047444401652940007E-13, 0.5499999999999964917, 30.00000000000000000 ) ) ;
#120 = ADVANCED_FACE ( 'NONE', ( #63 ), #131, .F. ) ;
#121 = VERTEX_POINT ( 'NONE', #119 ) ;
#122 = DESIGN_CONTEXT ( 'detailed design', #20, 'design' ) ;
#123 = CALENDAR_DATE ( 2021, 7, 10 ) ;
#124 = CIRCLE ( 'NONE', #101, 0.5850000000000006306 ) ;
#125 = CC_DESIGN_PERSON_AND_ORGANIZATION_ASSIGNMENT ( #8, #175, ( #107 ) ) ;
#126 = DIRECTION ( 'NONE',  ( 3.491481338843133355E-15, -1.224646799147353207E-16, 1.000000000000000000 ) ) ;
#127 = COORDINATED_UNIVERSAL_TIME_OFFSET ( 1, 0, .AHEAD. ) ;
#128 = DIRECTION ( 'NONE',  ( -3.292187939123485911E-31, -1.000000000000000000, -9.266685234918857698E-17 ) ) ;
#129 = CARTESIAN_POINT ( 'NONE',  ( 3.242115685655975138E-14, -1.137181102110539637E-15, 9.285788383248862132 ) ) ;
#130 = PRODUCT_RELATED_PRODUCT_CATEGORY ( 'detail', '', ( #43 ) ) ;
#131 = PLANE ( 'NONE',  #170 ) ;
#132 = UNCERTAINTY_MEASURE_WITH_UNIT (LENGTH_MEASURE( 1.000000000000000082E-05 ), #207, 'distance_accuracy_value', 'NONE');
#133 = CC_DESIGN_APPROVAL ( #212, ( #40 ) ) ;
#134 = PLANE ( 'NONE',  #148 ) ;
#135 = VERTEX_POINT ( 'NONE', #22 ) ;
#136 = APPROVAL_DATE_TIME ( #27, #212 ) ;
#137 = ORGANIZATION ( 'UNSPECIFIED', 'UNSPECIFIED', '' ) ;
#138 = EDGE_LOOP ( 'NONE', ( #58 ) ) ;
#139 = PRODUCT_DEFINITION ( 'UNKNOWN', '', #107, #122 ) ;
#140 = CIRCLE ( 'NONE', #88, 0.7500000000000000000 ) ;
#141 = COORDINATED_UNIVERSAL_TIME_OFFSET ( 1, 0, .AHEAD. ) ;
#142 = DIRECTION ( 'NONE',  ( 3.292187939123485911E-31, 1.000000000000000000, 9.266685234918857698E-17 ) ) ;
#143 = PERSON_AND_ORGANIZATION_ROLE ( 'design_supplier' ) ;
#144 = PLANE ( 'NONE',  #191 ) ;
#145 = EDGE_CURVE ( 'NONE', #135, #135, #124, .T. ) ;
#146 = ORIENTED_EDGE ( 'NONE', *, *, #66, .T. ) ;
#147 = ORIENTED_EDGE ( 'NONE', *, *, #10, .T. ) ;
#148 = AXIS2_PLACEMENT_3D ( 'NONE', #30, #117, #32 ) ;
#149 = CARTESIAN_POINT ( 'NONE',  ( 3.142333204958820020E-14, 4.386797364285923103E-33, 9.000000000000000000 ) ) ;
#150 = CONICAL_SURFACE ( 'NONE', #165, 0.5849999999999989653, 1.029744258676649649 ) ;
#151 = VERTEX_POINT ( 'NONE', #33 ) ;
#152 = DIRECTION ( 'NONE',  ( -3.491481338843133355E-15, 1.224646799147353207E-16, -1.000000000000000000 ) ) ;
#153 = APPLICATION_PROTOCOL_DEFINITION ( 'international standard', 'config_control_design', 1994, #20 ) ;
#154 = DATE_TIME_ROLE ( 'classification_date' ) ;
#155 = EDGE_CURVE ( 'NONE', #205, #205, #140, .T. ) ;
#156 = LOCAL_TIME ( 15, 47, 14.00000000000000000, #218 ) ;
#157 = PRODUCT_DEFINITION_SHAPE ( 'NONE', 'NONE',  #139 ) ;
#158 = APPROVAL_ROLE ( '' ) ;
#159 = PERSON_AND_ORGANIZATION ( #214, #137 ) ;
#160 = ORIENTED_EDGE ( 'NONE', *, *, #31, .F. ) ;
#161 = ADVANCED_FACE ( 'NONE', ( #83, #35 ), #91, .T. ) ;
#162 = DIRECTION ( 'NONE',  ( 0.0000000000000000000, -1.000000000000000000, 0.0000000000000000000 ) ) ;
#163 = CARTESIAN_POINT ( 'NONE',  ( 1.047444401652940007E-13, 4.124339402320053683E-33, 30.00000000000000000 ) ) ;
#164 = DIRECTION ( 'NONE',  ( 0.0000000000000000000, 1.000000000000000000, 0.0000000000000000000 ) ) ;
#165 = AXIS2_PLACEMENT_3D ( 'NONE', #220, #126, #128 ) ;
#166 = CARTESIAN_POINT ( 'NONE',  ( 1.047444401652940007E-13, -3.673940397442059178E-15, 30.00000000000000000 ) ) ;
#167 = PERSON_AND_ORGANIZATION ( #214, #137 ) ;
#168 = CC_DESIGN_PERSON_AND_ORGANIZATION_ASSIGNMENT ( #44, #71, ( #40 ) ) ;
#169 = CARTESIAN_POINT ( 'NONE',  ( 1.040461438975253740E-13, -3.649447461459112464E-15, 29.80000000000000071 ) ) ;
#170 = AXIS2_PLACEMENT_3D ( 'NONE', #163, #51, #188 ) ;
#171 = CARTESIAN_POINT ( 'NONE',  ( 1.040461438975253740E-13, 0.7499999999999963363, 29.80000000000000071 ) ) ;
#172 = PERSON_AND_ORGANIZATION ( #214, #137 ) ;
#173 = ORIENTED_EDGE ( 'NONE', *, *, #155, .T. ) ;
#174 = EDGE_CURVE ( 'NONE', #121, #121, #186, .T. ) ;
#175 = PERSON_AND_ORGANIZATION_ROLE ( 'creator' ) ;
#176 = LOCAL_TIME ( 15, 47, 14.00000000000000000, #54 ) ;
#177 = LOCAL_TIME ( 15, 47, 14.00000000000000000, #127 ) ;
#178 = DATE_AND_TIME ( #110, #177 ) ;
#179 = AXIS2_PLACEMENT_3D ( 'NONE', #97, #221, #162 ) ;
#180 = FACE_OUTER_BOUND ( 'NONE', #138, .T. ) ;
#181 = CC_DESIGN_PERSON_AND_ORGANIZATION_ASSIGNMENT ( #167, #85, ( #43 ) ) ;
#182 = CARTESIAN_POINT ( 'NONE',  ( 1.227267778569580537E-15, -4.304675897880963184E-17, 0.3515034621311259877 ) ) ;
#183 = ORIENTED_EDGE ( 'NONE', *, *, #174, .F. ) ;
#184 = CC_DESIGN_SECURITY_CLASSIFICATION ( #40, ( #107 ) ) ;
#185 = AXIS2_PLACEMENT_3D ( 'NONE', #50, #11, #164 ) ;
#186 = CIRCLE ( 'NONE', #203, 0.5500000000000001554 ) ;
#187 = FACE_OUTER_BOUND ( 'NONE', #29, .T. ) ;
#188 = DIRECTION ( 'NONE',  ( 4.275831445896958607E-31, 1.000000000000000000, 1.224646799147353207E-16 ) ) ;
#189 = DIRECTION ( 'NONE',  ( 1.000000000000000000, 0.0000000000000000000, 0.0000000000000000000 ) ) ;
#190 = APPROVAL_STATUS ( 'not_yet_approved' ) ;
#191 = AXIS2_PLACEMENT_3D ( 'NONE', #149, #223, #64 ) ;
#192 = DIRECTION ( 'NONE',  ( -3.491481338843133355E-15, 1.224646799147353207E-16, -1.000000000000000000 ) ) ;
#193 = APPLICATION_PROTOCOL_DEFINITION ( 'international standard', 'config_control_design', 1994, #37 ) ;
#194 = DATE_AND_TIME ( #123, #176 ) ;
#195 = CONICAL_SURFACE ( 'NONE', #179, 0.7499999999999974465, 0.5235987755982921543 ) ;
#196 = ORIENTED_EDGE ( 'NONE', *, *, #10, .F. ) ;
#197 = CALENDAR_DATE ( 2021, 7, 10 ) ;
#198 = DIRECTION ( 'NONE',  ( -3.491481338843133355E-15, 1.224646799147353207E-16, -1.000000000000000000 ) ) ;
#199 = CYLINDRICAL_SURFACE ( 'NONE', #112, 0.5849999999999998535 ) ;
#200 = APPROVAL_DATE_TIME ( #178, #206 ) ;
#201 = FACE_BOUND ( 'NONE', #115, .T. ) ;
#202 = EDGE_LOOP ( 'NONE', ( #183 ) ) ;
#203 = AXIS2_PLACEMENT_3D ( 'NONE', #166, #2, #38 ) ;
#204 = FACE_OUTER_BOUND ( 'NONE', #98, .T. ) ;
#205 = VERTEX_POINT ( 'NONE', #171 ) ;
#206 = APPROVAL ( #24, 'UNSPECIFIED' ) ;
#207 =( LENGTH_UNIT ( ) NAMED_UNIT ( * ) SI_UNIT ( .MILLI., .METRE. ) );
#208 = APPROVAL_ROLE ( '' ) ;
#209 = VERTEX_POINT ( 'NONE', #106 ) ;
#210 = CC_DESIGN_APPROVAL ( #108, ( #139 ) ) ;
#211 = ORIENTED_EDGE ( 'NONE', *, *, #174, .T. ) ;
#212 = APPROVAL ( #76, 'UNSPECIFIED' ) ;
#213 = APPROVAL_PERSON_ORGANIZATION ( #159, #206, #158 ) ;
#214 = PERSON ( 'UNSPECIFIED', 'UNSPECIFIED', 'UNSPECIFIED', ('UNSPECIFIED'), ('UNSPECIFIED'), ('UNSPECIFIED') ) ;
#215 = MANIFOLD_SOLID_BREP ( 'Corps-Déplacer/Copier1[1]', #16 ) ;
#216 = EDGE_LOOP ( 'NONE', ( #147 ) ) ;
#217 = CARTESIAN_POINT ( 'NONE',  ( 0.0000000000000000000, 0.0000000000000000000, 0.0000000000000000000 ) ) ;
#218 = COORDINATED_UNIVERSAL_TIME_OFFSET ( 1, 0, .AHEAD. ) ;
#219 = AXIS2_PLACEMENT_3D ( 'NONE', #53, #152, #21 ) ;
#220 = CARTESIAN_POINT ( 'NONE',  ( 1.227267778569580537E-15, -4.304675897880963184E-17, 0.3515034621311259877 ) ) ;
#221 = DIRECTION ( 'NONE',  ( 3.491481338843133355E-15, -1.224646799147353207E-16, 1.000000000000000000 ) ) ;
#222 = DIRECTION ( 'NONE',  ( -3.491481338843133355E-15, 1.224646799147353207E-16, -1.000000000000000000 ) ) ;
#223 = DIRECTION ( 'NONE',  ( 3.491481338843133355E-15, -1.224646799147353207E-16, 1.000000000000000000 ) ) ;
ENDSEC;
END-ISO-10303-21;
