ISO-10303-21;
HEADER;
FILE_DESCRIPTION (( 'STEP AP203' ),
    '1' );
FILE_NAME ('37012.step',
    '2021-10-07T13:47:13',
    ( '' ),
    ( '' ),
    'SwSTEP 2.0',
    'SolidWorks 2019',
    '' );
FILE_SCHEMA (( 'CONFIG_CONTROL_DESIGN' ));
ENDSEC;

DATA;
#1 = EDGE_CURVE ( 'NONE', #2, #2, #201, .T. ) ;
#2 = VERTEX_POINT ( 'NONE', #51 ) ;
#3 = DIRECTION ( 'NONE',  ( -3.491481338843133355E-15, 1.224646799147353207E-16, -1.000000000000000000 ) ) ;
#4 = CARTESIAN_POINT ( 'NONE',  ( 1.216778310376678254E-15, 0.5799999999999989608, 0.3484991590359882707 ) ) ;
#5 = DIRECTION ( 'NONE',  ( -3.491481338843133355E-15, 1.224646799147353207E-16, -1.000000000000000000 ) ) ;
#6 = AXIS2_PLACEMENT_3D ( 'NONE', #54, #126, #124 ) ;
#7 = FACE_OUTER_BOUND ( 'NONE', #165, .T. ) ;
#8 = DATE_AND_TIME ( #130, #222 ) ;
#9 = APPROVAL_DATE_TIME ( #8, #180 ) ;
#10 = ADVANCED_FACE ( 'NONE', ( #134 ), #205, .F. ) ;
#11 = ORIENTED_EDGE ( 'NONE', *, *, #143, .F. ) ;
#12 = EDGE_CURVE ( 'NONE', #211, #211, #108, .T. ) ;
#13 = AXIS2_PLACEMENT_3D ( 'NONE', #105, #158, #157 ) ;
#14 = LOCAL_TIME ( 15, 47, 13.00000000000000000, #188 ) ;
#15 = APPROVAL_DATE_TIME ( #167, #163 ) ;
#16 = EDGE_LOOP ( 'NONE', ( #114 ) ) ;
#17 = CALENDAR_DATE ( 2021, 7, 10 ) ;
#18 = DIRECTION ( 'NONE',  ( 3.320568869633171017E-31, 1.000000000000000000, 9.346570452461261315E-17 ) ) ;
#19 = FACE_OUTER_BOUND ( 'NONE', #133, .T. ) ;
#20 = CC_DESIGN_APPROVAL ( #180, ( #61 ) ) ;
#21 = DIRECTION ( 'NONE',  ( 0.0000000000000000000, 1.000000000000000000, 0.0000000000000000000 ) ) ;
#22 = DIRECTION ( 'NONE',  ( -3.491481338843133355E-15, 1.224646799147353207E-16, -1.000000000000000000 ) ) ;
#23 = DIRECTION ( 'NONE',  ( 0.0000000000000000000, 1.000000000000000000, 0.0000000000000000000 ) ) ;
#24 = CC_DESIGN_DATE_AND_TIME_ASSIGNMENT ( #66, #117, ( #61 ) ) ;
#25 = MECHANICAL_CONTEXT ( 'NONE', #169, 'mechanical' ) ;
#26 = COORDINATED_UNIVERSAL_TIME_OFFSET ( 1, 0, .AHEAD. ) ;
#27 = EDGE_LOOP ( 'NONE', ( #67 ) ) ;
#28 = PERSON_AND_ORGANIZATION ( #120, #56 ) ;
#29 = EDGE_CURVE ( 'NONE', #122, #122, #37, .T. ) ;
#30 = ORIENTED_EDGE ( 'NONE', *, *, #29, .T. ) ;
#31 = PRODUCT_DEFINITION_FORMATION_WITH_SPECIFIED_SOURCE ( 'ANY', '', #41, .NOT_KNOWN. ) ;
#32 = DIRECTION ( 'NONE',  ( -3.491481338843133355E-15, 1.224646799147353207E-16, -1.000000000000000000 ) ) ;
#33 = DESIGN_CONTEXT ( 'detailed design', #131, 'design' ) ;
#34 = CARTESIAN_POINT ( 'NONE',  ( 3.245139397192253274E-14, 0.7499999999999963363, 9.294448637286707893 ) ) ;
#35 = FACE_OUTER_BOUND ( 'NONE', #16, .T. ) ;
#36 = EDGE_CURVE ( 'NONE', #192, #192, #116, .T. ) ;
#37 = CIRCLE ( 'NONE', #55, 0.5799999999999989608 ) ;
#38 = FACE_OUTER_BOUND ( 'NONE', #47, .T. ) ;
#39 = CARTESIAN_POINT ( 'NONE',  ( 3.142333204958820020E-14, 4.349303369719371599E-33, 9.000000000000000000 ) ) ;
#40 =( NAMED_UNIT ( * ) SI_UNIT ( $, .STERADIAN. ) SOLID_ANGLE_UNIT ( ) );
#41 = PRODUCT ( '37012', '37012', '', ( #25 ) ) ;
#42 = COORDINATED_UNIVERSAL_TIME_OFFSET ( 1, 0, .AHEAD. ) ;
#43 =( GEOMETRIC_REPRESENTATION_CONTEXT ( 3 ) GLOBAL_UNCERTAINTY_ASSIGNED_CONTEXT ( ( #208 ) ) GLOBAL_UNIT_ASSIGNED_CONTEXT ( ( #96, #199, #40 ) ) REPRESENTATION_CONTEXT ( 'NONE', 'WORKASPACE' ) );
#44 = ORIENTED_EDGE ( 'NONE', *, *, #29, .F. ) ;
#45 = CC_DESIGN_PERSON_AND_ORGANIZATION_ASSIGNMENT ( #81, #223, ( #151 ) ) ;
#46 = CARTESIAN_POINT ( 'NONE',  ( 1.040461438975253740E-13, -3.649447461459112464E-15, 29.80000000000000071 ) ) ;
#47 = EDGE_LOOP ( 'NONE', ( #62 ) ) ;
#48 = APPROVAL_ROLE ( '' ) ;
#49 = PERSON_AND_ORGANIZATION_ROLE ( 'creator' ) ;
#50 = SHAPE_DEFINITION_REPRESENTATION ( #90, #147 ) ;
#51 = CARTESIAN_POINT ( 'NONE',  ( 1.040461438975253740E-13, 0.7499999999999963363, 29.80000000000000071 ) ) ;
#52 = CARTESIAN_POINT ( 'NONE',  ( 1.047444401652940007E-13, 0.5499999999999964917, 30.00000000000000000 ) ) ;
#53 = FACE_OUTER_BOUND ( 'NONE', #78, .T. ) ;
#54 = CARTESIAN_POINT ( 'NONE',  ( 0.0000000000000000000, 0.0000000000000000000, 0.0000000000000000000 ) ) ;
#55 = AXIS2_PLACEMENT_3D ( 'NONE', #216, #141, #18 ) ;
#56 = ORGANIZATION ( 'UNSPECIFIED', 'UNSPECIFIED', '' ) ;
#57 = CARTESIAN_POINT ( 'NONE',  ( 1.047444401652940007E-13, -3.673940397442059178E-15, 30.00000000000000000 ) ) ;
#58 = MANIFOLD_SOLID_BREP ( 'Corps-Déplacer/Copier1[1]', #191 ) ;
#59 = VERTEX_POINT ( 'NONE', #60 ) ;
#60 = CARTESIAN_POINT ( 'NONE',  ( 3.142333204958820020E-14, 0.5799999999999989608, 9.000000000000000000 ) ) ;
#61 = PRODUCT_DEFINITION ( 'UNKNOWN', '', #31, #33 ) ;
#62 = ORIENTED_EDGE ( 'NONE', *, *, #1, .F. ) ;
#63 = DIRECTION ( 'NONE',  ( 0.0000000000000000000, 1.000000000000000000, 0.0000000000000000000 ) ) ;
#64 = PERSON_AND_ORGANIZATION ( #120, #56 ) ;
#65 = ADVANCED_FACE ( 'NONE', ( #53 ), #107, .T. ) ;
#66 = DATE_AND_TIME ( #17, #182 ) ;
#67 = ORIENTED_EDGE ( 'NONE', *, *, #36, .F. ) ;
#68 = FACE_OUTER_BOUND ( 'NONE', #118, .T. ) ;
#69 = FACE_OUTER_BOUND ( 'NONE', #189, .T. ) ;
#70 = CARTESIAN_POINT ( 'NONE',  ( 3.142333204958820020E-14, 4.349303369719371599E-33, 9.000000000000000000 ) ) ;
#71 = PLANE ( 'NONE',  #196 ) ;
#72 = APPLICATION_PROTOCOL_DEFINITION ( 'international standard', 'config_control_design', 1994, #131 ) ;
#73 = ADVANCED_FACE ( 'NONE', ( #92, #68 ), #87, .T. ) ;
#74 = AXIS2_PLACEMENT_3D ( 'NONE', #171, #3, #109 ) ;
#75 = APPROVAL_PERSON_ORGANIZATION ( #166, #111, #48 ) ;
#76 = ORIENTED_EDGE ( 'NONE', *, *, #173, .F. ) ;
#77 = CALENDAR_DATE ( 2021, 7, 10 ) ;
#78 = EDGE_LOOP ( 'NONE', ( #76 ) ) ;
#79 = CONICAL_SURFACE ( 'NONE', #214, 0.5500000000000001554, 0.7853981633974510546 ) ;
#80 = CONICAL_SURFACE ( 'NONE', #113, 0.5799999999999989608, 1.029744258676649649 ) ;
#81 = PERSON_AND_ORGANIZATION ( #120, #56 ) ;
#82 = EDGE_LOOP ( 'NONE', ( #221 ) ) ;
#83 = CALENDAR_DATE ( 2021, 7, 10 ) ;
#84 = DIRECTION ( 'NONE',  ( 0.0000000000000000000, -1.000000000000000000, 0.0000000000000000000 ) ) ;
#85 = CC_DESIGN_PERSON_AND_ORGANIZATION_ASSIGNMENT ( #206, #119, ( #31 ) ) ;
#86 = DIRECTION ( 'NONE',  ( -4.275831445896958607E-31, -1.000000000000000000, -1.224646799147353207E-16 ) ) ;
#87 = CONICAL_SURFACE ( 'NONE', #146, 0.7499999999999974465, 0.5235987755982928205 ) ;
#88 = FACE_OUTER_BOUND ( 'NONE', #27, .T. ) ;
#89 = CYLINDRICAL_SURFACE ( 'NONE', #13, 0.7499999999999986677 ) ;
#90 = PRODUCT_DEFINITION_SHAPE ( 'NONE', 'NONE',  #61 ) ;
#91 = ADVANCED_FACE ( 'NONE', ( #156, #19 ), #110, .T. ) ;
#92 = FACE_BOUND ( 'NONE', #185, .T. ) ;
#93 = AXIS2_PLACEMENT_3D ( 'NONE', #39, #213, #142 ) ;
#94 = APPLICATION_PROTOCOL_DEFINITION ( 'international standard', 'config_control_design', 1994, #169 ) ;
#95 = CARTESIAN_POINT ( 'NONE',  ( 0.0000000000000000000, 0.0000000000000000000, 0.0000000000000000000 ) ) ;
#96 =( LENGTH_UNIT ( ) NAMED_UNIT ( * ) SI_UNIT ( .MILLI., .METRE. ) );
#97 = ADVANCED_FACE ( 'NONE', ( #35 ), #71, .F. ) ;
#98 = EDGE_LOOP ( 'NONE', ( #203 ) ) ;
#99 = DATE_AND_TIME ( #83, #14 ) ;
#100 = APPROVAL_STATUS ( 'not_yet_approved' ) ;
#101 = APPROVAL_ROLE ( '' ) ;
#102 = CIRCLE ( 'NONE', #125, 0.5799999999999999600 ) ;
#103 = DATE_TIME_ROLE ( 'classification_date' ) ;
#104 = CC_DESIGN_PERSON_AND_ORGANIZATION_ASSIGNMENT ( #162, #161, ( #41 ) ) ;
#105 = CARTESIAN_POINT ( 'NONE',  ( 0.0000000000000000000, 0.0000000000000000000, 0.0000000000000000000 ) ) ;
#106 = VERTEX_POINT ( 'NONE', #112 ) ;
#107 = PLANE ( 'NONE',  #93 ) ;
#108 = CIRCLE ( 'NONE', #183, 0.5500000000000001554 ) ;
#109 = DIRECTION ( 'NONE',  ( 0.0000000000000000000, 1.000000000000000000, 0.0000000000000000000 ) ) ;
#110 = CYLINDRICAL_SURFACE ( 'NONE', #6, 0.5799999999999995159 ) ;
#111 = APPROVAL ( #190, 'UNSPECIFIED' ) ;
#112 = CARTESIAN_POINT ( 'NONE',  ( 3.142333204958820020E-14, 0.5799999999999989608, 9.000000000000000000 ) ) ;
#113 = AXIS2_PLACEMENT_3D ( 'NONE', #137, #154, #207 ) ;
#114 = ORIENTED_EDGE ( 'NONE', *, *, #143, .T. ) ;
#115 = COORDINATED_UNIVERSAL_TIME_OFFSET ( 1, 0, .AHEAD. ) ;
#116 = CIRCLE ( 'NONE', #187, 0.7499999999999974465 ) ;
#117 = DATE_TIME_ROLE ( 'creation_date' ) ;
#118 = EDGE_LOOP ( 'NONE', ( #152 ) ) ;
#119 = PERSON_AND_ORGANIZATION_ROLE ( 'design_supplier' ) ;
#120 = PERSON ( 'UNSPECIFIED', 'UNSPECIFIED', 'UNSPECIFIED', ('UNSPECIFIED'), ('UNSPECIFIED'), ('UNSPECIFIED') ) ;
#121 = ADVANCED_FACE ( 'NONE', ( #38, #175 ), #79, .T. ) ;
#122 = VERTEX_POINT ( 'NONE', #4 ) ;
#123 = DIRECTION ( 'NONE',  ( 3.491481338843133355E-15, -1.224646799147353207E-16, 1.000000000000000000 ) ) ;
#124 = DIRECTION ( 'NONE',  ( 4.275831445896957731E-31, 1.000000000000000000, 1.224646799147352961E-16 ) ) ;
#125 = AXIS2_PLACEMENT_3D ( 'NONE', #177, #198, #23 ) ;
#126 = DIRECTION ( 'NONE',  ( -3.491481338843133355E-15, 1.224646799147353207E-16, -1.000000000000000000 ) ) ;
#127 = APPROVAL_STATUS ( 'not_yet_approved' ) ;
#128 = CC_DESIGN_PERSON_AND_ORGANIZATION_ASSIGNMENT ( #28, #49, ( #31 ) ) ;
#129 = APPROVAL_ROLE ( '' ) ;
#130 = CALENDAR_DATE ( 2021, 7, 10 ) ;
#131 = APPLICATION_CONTEXT ( 'configuration controlled 3d designs of mechanical parts and assemblies' ) ;
#132 = APPROVAL_PERSON_ORGANIZATION ( #200, #180, #129 ) ;
#133 = EDGE_LOOP ( 'NONE', ( #164 ) ) ;
#134 = FACE_OUTER_BOUND ( 'NONE', #82, .T. ) ;
#135 = CALENDAR_DATE ( 2021, 7, 10 ) ;
#136 = COORDINATED_UNIVERSAL_TIME_OFFSET ( 1, 0, .AHEAD. ) ;
#137 = CARTESIAN_POINT ( 'NONE',  ( 1.216778310376678057E-15, -4.267883796189673759E-17, 0.3484991590359882152 ) ) ;
#138 = LOCAL_TIME ( 15, 47, 13.00000000000000000, #136 ) ;
#139 = DIRECTION ( 'NONE',  ( 0.0000000000000000000, 1.000000000000000000, 0.0000000000000000000 ) ) ;
#140 = DIRECTION ( 'NONE',  ( 4.275831445896958607E-31, 1.000000000000000000, 1.224646799147353207E-16 ) ) ;
#141 = DIRECTION ( 'NONE',  ( -3.491481338843133355E-15, 1.224646799147353207E-16, -1.000000000000000000 ) ) ;
#142 = DIRECTION ( 'NONE',  ( -4.275831445896958607E-31, -1.000000000000000000, -1.224646799147353207E-16 ) ) ;
#143 = EDGE_CURVE ( 'NONE', #106, #106, #181, .T. ) ;
#144 = PERSON_AND_ORGANIZATION ( #120, #56 ) ;
#145 = APPROVAL_PERSON_ORGANIZATION ( #64, #163, #101 ) ;
#146 = AXIS2_PLACEMENT_3D ( 'NONE', #197, #123, #84 ) ;
#147 = ADVANCED_BREP_SHAPE_REPRESENTATION ( '37012', ( #58, #210, #155 ), #43 ) ;
#148 = CC_DESIGN_DATE_AND_TIME_ASSIGNMENT ( #204, #103, ( #151 ) ) ;
#149 = EDGE_LOOP ( 'NONE', ( #44 ) ) ;
#150 = AXIS2_PLACEMENT_3D ( 'NONE', #46, #220, #63 ) ;
#151 = SECURITY_CLASSIFICATION ( '', '', #170 ) ;
#152 = ORIENTED_EDGE ( 'NONE', *, *, #36, .T. ) ;
#153 = APPROVAL_DATE_TIME ( #99, #111 ) ;
#154 = DIRECTION ( 'NONE',  ( 3.491481338843133355E-15, -1.224646799147353207E-16, 1.000000000000000000 ) ) ;
#155 = AXIS2_PLACEMENT_3D ( 'NONE', #95, #179, #217 ) ;
#156 = FACE_OUTER_BOUND ( 'NONE', #149, .T. ) ;
#157 = DIRECTION ( 'NONE',  ( 4.275831445896959482E-31, 1.000000000000000000, 1.224646799147353207E-16 ) ) ;
#158 = DIRECTION ( 'NONE',  ( -3.491481338843133355E-15, 1.224646799147353207E-16, -1.000000000000000000 ) ) ;
#159 = ADVANCED_FACE ( 'NONE', ( #88, #69 ), #89, .T. ) ;
#160 = DIRECTION ( 'NONE',  ( 0.0000000000000000000, 1.000000000000000000, 0.0000000000000000000 ) ) ;
#161 = PERSON_AND_ORGANIZATION_ROLE ( 'design_owner' ) ;
#162 = PERSON_AND_ORGANIZATION ( #120, #56 ) ;
#163 = APPROVAL ( #100, 'UNSPECIFIED' ) ;
#164 = ORIENTED_EDGE ( 'NONE', *, *, #173, .T. ) ;
#165 = EDGE_LOOP ( 'NONE', ( #30 ) ) ;
#166 = PERSON_AND_ORGANIZATION ( #120, #56 ) ;
#167 = DATE_AND_TIME ( #135, #215 ) ;
#168 = AXIS2_PLACEMENT_3D ( 'NONE', #176, #193, #140 ) ;
#169 = APPLICATION_CONTEXT ( 'configuration controlled 3d designs of mechanical parts and assemblies' ) ;
#170 = SECURITY_CLASSIFICATION_LEVEL ( 'unclassified' ) ;
#171 = CARTESIAN_POINT ( 'NONE',  ( 3.142333204958820020E-14, -1.102182119232617714E-15, 9.000000000000000000 ) ) ;
#172 = CARTESIAN_POINT ( 'NONE',  ( 1.047444401652940007E-13, -3.673940397442059178E-15, 30.00000000000000000 ) ) ;
#173 = EDGE_CURVE ( 'NONE', #59, #59, #102, .T. ) ;
#174 = CC_DESIGN_APPROVAL ( #111, ( #151 ) ) ;
#175 = FACE_BOUND ( 'NONE', #98, .T. ) ;
#176 = CARTESIAN_POINT ( 'NONE',  ( 1.047444401652940007E-13, 4.124339402320053683E-33, 30.00000000000000000 ) ) ;
#177 = CARTESIAN_POINT ( 'NONE',  ( 3.142333204958820020E-14, -1.102182119232617714E-15, 9.000000000000000000 ) ) ;
#178 = CC_DESIGN_APPROVAL ( #163, ( #31 ) ) ;
#179 = DIRECTION ( 'NONE',  ( 0.0000000000000000000, 0.0000000000000000000, 1.000000000000000000 ) ) ;
#180 = APPROVAL ( #127, 'UNSPECIFIED' ) ;
#181 = CIRCLE ( 'NONE', #74, 0.5799999999999999600 ) ;
#182 = LOCAL_TIME ( 15, 47, 13.00000000000000000, #42 ) ;
#183 = AXIS2_PLACEMENT_3D ( 'NONE', #172, #5, #139 ) ;
#184 = ADVANCED_FACE ( 'NONE', ( #7 ), #80, .T. ) ;
#185 = EDGE_LOOP ( 'NONE', ( #11 ) ) ;
#186 = CLOSED_SHELL ( 'NONE', ( #184, #91, #65 ) ) ;
#187 = AXIS2_PLACEMENT_3D ( 'NONE', #194, #22, #160 ) ;
#188 = COORDINATED_UNIVERSAL_TIME_OFFSET ( 1, 0, .AHEAD. ) ;
#189 = EDGE_LOOP ( 'NONE', ( #202 ) ) ;
#190 = APPROVAL_STATUS ( 'not_yet_approved' ) ;
#191 = CLOSED_SHELL ( 'NONE', ( #97, #73, #159, #121, #10 ) ) ;
#192 = VERTEX_POINT ( 'NONE', #34 ) ;
#193 = DIRECTION ( 'NONE',  ( -3.491481338843133355E-15, 1.224646799147353207E-16, -1.000000000000000000 ) ) ;
#194 = CARTESIAN_POINT ( 'NONE',  ( 3.245139397192253274E-14, -1.138241677349264484E-15, 9.294448637286707893 ) ) ;
#195 = CC_DESIGN_SECURITY_CLASSIFICATION ( #151, ( #31 ) ) ;
#196 = AXIS2_PLACEMENT_3D ( 'NONE', #70, #212, #86 ) ;
#197 = CARTESIAN_POINT ( 'NONE',  ( 3.245139397192253274E-14, -1.138241677349264484E-15, 9.294448637286707893 ) ) ;
#198 = DIRECTION ( 'NONE',  ( -3.491481338843133355E-15, 1.224646799147353207E-16, -1.000000000000000000 ) ) ;
#199 =( NAMED_UNIT ( * ) PLANE_ANGLE_UNIT ( ) SI_UNIT ( $, .RADIAN. ) );
#200 = PERSON_AND_ORGANIZATION ( #120, #56 ) ;
#201 = CIRCLE ( 'NONE', #150, 0.7500000000000000000 ) ;
#202 = ORIENTED_EDGE ( 'NONE', *, *, #1, .T. ) ;
#203 = ORIENTED_EDGE ( 'NONE', *, *, #12, .T. ) ;
#204 = DATE_AND_TIME ( #77, #138 ) ;
#205 = PLANE ( 'NONE',  #168 ) ;
#206 = PERSON_AND_ORGANIZATION ( #120, #56 ) ;
#207 = DIRECTION ( 'NONE',  ( -3.320568869633171017E-31, -1.000000000000000000, -9.346570452461261315E-17 ) ) ;
#208 = UNCERTAINTY_MEASURE_WITH_UNIT (LENGTH_MEASURE( 1.000000000000000082E-05 ), #96, 'distance_accuracy_value', 'NONE');
#209 = CC_DESIGN_PERSON_AND_ORGANIZATION_ASSIGNMENT ( #144, #219, ( #61 ) ) ;
#210 = MANIFOLD_SOLID_BREP ( 'Corps-Déplacer/Copier1[2]', #186 ) ;
#211 = VERTEX_POINT ( 'NONE', #52 ) ;
#212 = DIRECTION ( 'NONE',  ( 3.491481338843133355E-15, -1.224646799147353207E-16, 1.000000000000000000 ) ) ;
#213 = DIRECTION ( 'NONE',  ( 3.491481338843133355E-15, -1.224646799147353207E-16, 1.000000000000000000 ) ) ;
#214 = AXIS2_PLACEMENT_3D ( 'NONE', #57, #32, #21 ) ;
#215 = LOCAL_TIME ( 15, 47, 13.00000000000000000, #115 ) ;
#216 = CARTESIAN_POINT ( 'NONE',  ( 1.216778310376678057E-15, -4.267883796189673759E-17, 0.3484991590359882152 ) ) ;
#217 = DIRECTION ( 'NONE',  ( 1.000000000000000000, 0.0000000000000000000, 0.0000000000000000000 ) ) ;
#218 = PRODUCT_RELATED_PRODUCT_CATEGORY ( 'detail', '', ( #41 ) ) ;
#219 = PERSON_AND_ORGANIZATION_ROLE ( 'creator' ) ;
#220 = DIRECTION ( 'NONE',  ( -3.491481338843133355E-15, 1.224646799147353207E-16, -1.000000000000000000 ) ) ;
#221 = ORIENTED_EDGE ( 'NONE', *, *, #12, .F. ) ;
#222 = LOCAL_TIME ( 15, 47, 13.00000000000000000, #26 ) ;
#223 = PERSON_AND_ORGANIZATION_ROLE ( 'classification_officer' ) ;
ENDSEC;
END-ISO-10303-21;
