ISO-10303-21;
HEADER;
FILE_DESCRIPTION (( 'STEP AP203' ),
    '1' );
FILE_NAME ('37011.step',
    '2021-10-07T13:47:12',
    ( '' ),
    ( '' ),
    'SwSTEP 2.0',
    'SolidWorks 2019',
    '' );
FILE_SCHEMA (( 'CONFIG_CONTROL_DESIGN' ));
ENDSEC;

DATA;
#1 = DIRECTION ( 'NONE',  ( -3.491481338843133355E-15, 1.224646799147353207E-16, -1.000000000000000000 ) ) ;
#2 = COORDINATED_UNIVERSAL_TIME_OFFSET ( 1, 0, .AHEAD. ) ;
#3 = COORDINATED_UNIVERSAL_TIME_OFFSET ( 1, 0, .AHEAD. ) ;
#4 = APPROVAL_DATE_TIME ( #160, #129 ) ;
#5 = APPLICATION_PROTOCOL_DEFINITION ( 'international standard', 'config_control_design', 1994, #39 ) ;
#6 = ADVANCED_FACE ( 'NONE', ( #25 ), #58, .T. ) ;
#7 = SHAPE_DEFINITION_REPRESENTATION ( #41, #96 ) ;
#8 = CC_DESIGN_PERSON_AND_ORGANIZATION_ASSIGNMENT ( #211, #214, ( #138 ) ) ;
#9 = ORIENTED_EDGE ( 'NONE', *, *, #198, .T. ) ;
#10 = DIRECTION ( 'NONE',  ( -3.491481338843133355E-15, 1.224646799147353207E-16, -1.000000000000000000 ) ) ;
#11 = CARTESIAN_POINT ( 'NONE',  ( 1.047444401652940007E-13, -3.673940397442059178E-15, 30.00000000000000000 ) ) ;
#12 = DIRECTION ( 'NONE',  ( -3.491481338843133355E-15, 1.224646799147353207E-16, -1.000000000000000000 ) ) ;
#13 = CARTESIAN_POINT ( 'NONE',  ( 3.251186820264807651E-14, -1.140362827826714376E-15, 9.311769145362395861 ) ) ;
#14 = AXIS2_PLACEMENT_3D ( 'NONE', #115, #12, #183 ) ;
#15 = AXIS2_PLACEMENT_3D ( 'NONE', #176, #161, #140 ) ;
#16 = FACE_OUTER_BOUND ( 'NONE', #216, .T. ) ;
#17 = COORDINATED_UNIVERSAL_TIME_OFFSET ( 1, 0, .AHEAD. ) ;
#18 = SECURITY_CLASSIFICATION_LEVEL ( 'unclassified' ) ;
#19 = APPLICATION_PROTOCOL_DEFINITION ( 'international standard', 'config_control_design', 1994, #93 ) ;
#20 = COORDINATED_UNIVERSAL_TIME_OFFSET ( 1, 0, .AHEAD. ) ;
#21 = EDGE_LOOP ( 'NONE', ( #178 ) ) ;
#22 = CALENDAR_DATE ( 2021, 7, 10 ) ;
#23 = EDGE_LOOP ( 'NONE', ( #113 ) ) ;
#24 = APPROVAL_PERSON_ORGANIZATION ( #49, #117, #53 ) ;
#25 = FACE_OUTER_BOUND ( 'NONE', #73, .T. ) ;
#26 = DIRECTION ( 'NONE',  ( -3.491481338843133355E-15, 1.224646799147353207E-16, -1.000000000000000000 ) ) ;
#27 = DIRECTION ( 'NONE',  ( 4.275831445896959482E-31, 1.000000000000000000, 1.224646799147353207E-16 ) ) ;
#28 = VERTEX_POINT ( 'NONE', #168 ) ;
#29 = CARTESIAN_POINT ( 'NONE',  ( 0.0000000000000000000, 0.0000000000000000000, 0.0000000000000000000 ) ) ;
#30 = FACE_OUTER_BOUND ( 'NONE', #163, .T. ) ;
#31 = APPROVAL_ROLE ( '' ) ;
#32 =( NAMED_UNIT ( * ) PLANE_ANGLE_UNIT ( ) SI_UNIT ( $, .RADIAN. ) );
#33 = DATE_AND_TIME ( #66, #151 ) ;
#34 = UNCERTAINTY_MEASURE_WITH_UNIT (LENGTH_MEASURE( 1.000000000000000082E-05 ), #158, 'distance_accuracy_value', 'NONE');
#35 = AXIS2_PLACEMENT_3D ( 'NONE', #136, #114, #208 ) ;
#36 = APPROVAL_STATUS ( 'not_yet_approved' ) ;
#37 = PRODUCT_RELATED_PRODUCT_CATEGORY ( 'detail', '', ( #69 ) ) ;
#38 = CARTESIAN_POINT ( 'NONE',  ( 3.142333204958820020E-14, 4.274315380586278171E-33, 9.000000000000000000 ) ) ;
#39 = APPLICATION_CONTEXT ( 'configuration controlled 3d designs of mechanical parts and assemblies' ) ;
#40 = SECURITY_CLASSIFICATION ( '', '', #18 ) ;
#41 = PRODUCT_DEFINITION_SHAPE ( 'NONE', 'NONE',  #144 ) ;
#42 = CC_DESIGN_APPROVAL ( #117, ( #144 ) ) ;
#43 = EDGE_LOOP ( 'NONE', ( #9 ) ) ;
#44 = CARTESIAN_POINT ( 'NONE',  ( 1.195799373990873096E-15, -4.194299592807092444E-17, 0.3424905528457125037 ) ) ;
#45 = DIRECTION ( 'NONE',  ( 0.0000000000000000000, 1.000000000000000000, 0.0000000000000000000 ) ) ;
#46 = DIRECTION ( 'NONE',  ( 0.0000000000000000000, 1.000000000000000000, 0.0000000000000000000 ) ) ;
#47 = FACE_OUTER_BOUND ( 'NONE', #21, .T. ) ;
#48 = DIRECTION ( 'NONE',  ( -3.491481338843133355E-15, 1.224646799147353207E-16, -1.000000000000000000 ) ) ;
#49 = PERSON_AND_ORGANIZATION ( #221, #142 ) ;
#50 = APPROVAL_ROLE ( '' ) ;
#51 = ADVANCED_FACE ( 'NONE', ( #91, #220 ), #156, .T. ) ;
#52 = CONICAL_SURFACE ( 'NONE', #171, 0.5699999999999988409, 1.029744258676649649 ) ;
#53 = APPROVAL_ROLE ( '' ) ;
#54 = MANIFOLD_SOLID_BREP ( 'Corps-Déplacer/Copier1[1]', #75 ) ;
#55 = ORIENTED_EDGE ( 'NONE', *, *, #198, .F. ) ;
#56 = ADVANCED_FACE ( 'NONE', ( #135, #30 ), #167, .T. ) ;
#57 = ORIENTED_EDGE ( 'NONE', *, *, #191, .T. ) ;
#58 = PLANE ( 'NONE',  #184 ) ;
#59 = DIRECTION ( 'NONE',  ( 3.491481338843133355E-15, -1.224646799147353207E-16, 1.000000000000000000 ) ) ;
#60 = CARTESIAN_POINT ( 'NONE',  ( 1.195799373990873096E-15, -4.194299592807092444E-17, 0.3424905528457125037 ) ) ;
#61 = CC_DESIGN_PERSON_AND_ORGANIZATION_ASSIGNMENT ( #175, #126, ( #144 ) ) ;
#62 = VERTEX_POINT ( 'NONE', #88 ) ;
#63 = DIRECTION ( 'NONE',  ( -3.491481338843133355E-15, 1.224646799147353207E-16, -1.000000000000000000 ) ) ;
#64 = DIRECTION ( 'NONE',  ( 4.275831445896958607E-31, 1.000000000000000000, 1.224646799147353207E-16 ) ) ;
#65 = DATE_TIME_ROLE ( 'classification_date' ) ;
#66 = CALENDAR_DATE ( 2021, 7, 10 ) ;
#67 = CC_DESIGN_DATE_AND_TIME_ASSIGNMENT ( #195, #65, ( #40 ) ) ;
#68 = AXIS2_PLACEMENT_3D ( 'NONE', #223, #206, #134 ) ;
#69 = PRODUCT ( '37011', '37011', '', ( #120 ) ) ;
#70 = EDGE_LOOP ( 'NONE', ( #130 ) ) ;
#71 = EDGE_LOOP ( 'NONE', ( #132 ) ) ;
#72 = APPROVAL ( #87, 'UNSPECIFIED' ) ;
#73 = EDGE_LOOP ( 'NONE', ( #146 ) ) ;
#74 = ORIENTED_EDGE ( 'NONE', *, *, #159, .T. ) ;
#75 = CLOSED_SHELL ( 'NONE', ( #98, #51, #56, #139, #141 ) ) ;
#76 = CARTESIAN_POINT ( 'NONE',  ( 3.142333204958820020E-14, 0.5699999999999988409, 9.000000000000000000 ) ) ;
#77 = FACE_OUTER_BOUND ( 'NONE', #215, .T. ) ;
#78 = ADVANCED_FACE ( 'NONE', ( #188 ), #52, .T. ) ;
#79 = DIRECTION ( 'NONE',  ( -3.491481338843133355E-15, 1.224646799147353207E-16, -1.000000000000000000 ) ) ;
#80 = AXIS2_PLACEMENT_3D ( 'NONE', #133, #48, #46 ) ;
#81 = CARTESIAN_POINT ( 'NONE',  ( 1.047444401652940007E-13, -3.673940397442059178E-15, 30.00000000000000000 ) ) ;
#82 =( GEOMETRIC_REPRESENTATION_CONTEXT ( 3 ) GLOBAL_UNCERTAINTY_ASSIGNED_CONTEXT ( ( #34 ) ) GLOBAL_UNIT_ASSIGNED_CONTEXT ( ( #158, #32, #107 ) ) REPRESENTATION_CONTEXT ( 'NONE', 'WORKASPACE' ) );
#83 = CARTESIAN_POINT ( 'NONE',  ( 1.040461438975253740E-13, -3.649447461459112464E-15, 29.80000000000000071 ) ) ;
#84 = DATE_TIME_ROLE ( 'creation_date' ) ;
#85 = AXIS2_PLACEMENT_3D ( 'NONE', #13, #182, #189 ) ;
#86 = CIRCLE ( 'NONE', #104, 0.7500000000000000000 ) ;
#87 = APPROVAL_STATUS ( 'not_yet_approved' ) ;
#88 = CARTESIAN_POINT ( 'NONE',  ( 3.142333204958820020E-14, 0.5699999999999988409, 9.000000000000000000 ) ) ;
#89 = PERSON_AND_ORGANIZATION_ROLE ( 'design_owner' ) ;
#90 = LOCAL_TIME ( 15, 47, 12.00000000000000000, #17 ) ;
#91 = FACE_BOUND ( 'NONE', #71, .T. ) ;
#92 = ORIENTED_EDGE ( 'NONE', *, *, #159, .F. ) ;
#93 = APPLICATION_CONTEXT ( 'configuration controlled 3d designs of mechanical parts and assemblies' ) ;
#94 = VERTEX_POINT ( 'NONE', #166 ) ;
#95 = APPROVAL_PERSON_ORGANIZATION ( #210, #72, #50 ) ;
#96 = ADVANCED_BREP_SHAPE_REPRESENTATION ( '37011', ( #54, #207, #15 ), #82 ) ;
#97 = DIRECTION ( 'NONE',  ( -3.491481338843133355E-15, 1.224646799147353207E-16, -1.000000000000000000 ) ) ;
#98 = ADVANCED_FACE ( 'NONE', ( #99 ), #100, .F. ) ;
#99 = FACE_OUTER_BOUND ( 'NONE', #164, .T. ) ;
#100 = PLANE ( 'NONE',  #68 ) ;
#101 = CIRCLE ( 'NONE', #192, 0.5699999999999999512 ) ;
#102 = PERSON_AND_ORGANIZATION ( #221, #142 ) ;
#103 = VERTEX_POINT ( 'NONE', #193 ) ;
#104 = AXIS2_PLACEMENT_3D ( 'NONE', #83, #63, #219 ) ;
#105 = EDGE_CURVE ( 'NONE', #94, #94, #201, .T. ) ;
#106 = CALENDAR_DATE ( 2021, 7, 10 ) ;
#107 =( NAMED_UNIT ( * ) SI_UNIT ( $, .STERADIAN. ) SOLID_ANGLE_UNIT ( ) );
#108 = DIRECTION ( 'NONE',  ( -4.275831445896958607E-31, -1.000000000000000000, -1.224646799147353207E-16 ) ) ;
#109 = DATE_AND_TIME ( #22, #196 ) ;
#110 = CC_DESIGN_PERSON_AND_ORGANIZATION_ASSIGNMENT ( #102, #173, ( #40 ) ) ;
#111 = CLOSED_SHELL ( 'NONE', ( #78, #180, #6 ) ) ;
#112 = CIRCLE ( 'NONE', #213, 0.5500000000000001554 ) ;
#113 = ORIENTED_EDGE ( 'NONE', *, *, #177, .T. ) ;
#114 = DIRECTION ( 'NONE',  ( -3.491481338843133355E-15, 1.224646799147353207E-16, -1.000000000000000000 ) ) ;
#115 = CARTESIAN_POINT ( 'NONE',  ( 0.0000000000000000000, 0.0000000000000000000, 0.0000000000000000000 ) ) ;
#116 = CARTESIAN_POINT ( 'NONE',  ( 1.047444401652940007E-13, 4.124339402320053683E-33, 30.00000000000000000 ) ) ;
#117 = APPROVAL ( #137, 'UNSPECIFIED' ) ;
#118 = DIRECTION ( 'NONE',  ( 3.378824463837262582E-31, 1.000000000000000000, 9.510545372679882313E-17 ) ) ;
#119 = CC_DESIGN_APPROVAL ( #72, ( #40 ) ) ;
#120 = MECHANICAL_CONTEXT ( 'NONE', #93, 'mechanical' ) ;
#121 = PERSON_AND_ORGANIZATION_ROLE ( 'design_supplier' ) ;
#122 = PERSON_AND_ORGANIZATION ( #221, #142 ) ;
#123 = DESIGN_CONTEXT ( 'detailed design', #39, 'design' ) ;
#124 = LOCAL_TIME ( 15, 47, 12.00000000000000000, #209 ) ;
#125 = CIRCLE ( 'NONE', #218, 0.5699999999999988409 ) ;
#126 = PERSON_AND_ORGANIZATION_ROLE ( 'creator' ) ;
#127 = EDGE_CURVE ( 'NONE', #148, #148, #101, .T. ) ;
#128 = APPROVAL_DATE_TIME ( #109, #72 ) ;
#129 = APPROVAL ( #36, 'UNSPECIFIED' ) ;
#130 = ORIENTED_EDGE ( 'NONE', *, *, #105, .T. ) ;
#131 = DIRECTION ( 'NONE',  ( 3.491481338843133355E-15, -1.224646799147353207E-16, 1.000000000000000000 ) ) ;
#132 = ORIENTED_EDGE ( 'NONE', *, *, #191, .F. ) ;
#133 = CARTESIAN_POINT ( 'NONE',  ( 3.251186820264807651E-14, -1.140362827826714376E-15, 9.311769145362395861 ) ) ;
#134 = DIRECTION ( 'NONE',  ( -4.275831445896958607E-31, -1.000000000000000000, -1.224646799147353207E-16 ) ) ;
#135 = FACE_OUTER_BOUND ( 'NONE', #145, .T. ) ;
#136 = CARTESIAN_POINT ( 'NONE',  ( 3.142333204958820020E-14, -1.102182119232617714E-15, 9.000000000000000000 ) ) ;
#137 = APPROVAL_STATUS ( 'not_yet_approved' ) ;
#138 = PRODUCT_DEFINITION_FORMATION_WITH_SPECIFIED_SOURCE ( 'ANY', '', #69, .NOT_KNOWN. ) ;
#139 = ADVANCED_FACE ( 'NONE', ( #203, #170 ), #174, .T. ) ;
#140 = DIRECTION ( 'NONE',  ( 1.000000000000000000, 0.0000000000000000000, 0.0000000000000000000 ) ) ;
#141 = ADVANCED_FACE ( 'NONE', ( #47 ), #147, .F. ) ;
#142 = ORGANIZATION ( 'UNSPECIFIED', 'UNSPECIFIED', '' ) ;
#143 = CIRCLE ( 'NONE', #35, 0.5699999999999999512 ) ;
#144 = PRODUCT_DEFINITION ( 'UNKNOWN', '', #138, #123 ) ;
#145 = EDGE_LOOP ( 'NONE', ( #217 ) ) ;
#146 = ORIENTED_EDGE ( 'NONE', *, *, #127, .F. ) ;
#147 = PLANE ( 'NONE',  #179 ) ;
#148 = VERTEX_POINT ( 'NONE', #76 ) ;
#149 = VERTEX_POINT ( 'NONE', #222 ) ;
#150 = AXIS2_PLACEMENT_3D ( 'NONE', #29, #1, #27 ) ;
#151 = LOCAL_TIME ( 15, 47, 12.00000000000000000, #3 ) ;
#152 = CC_DESIGN_PERSON_AND_ORGANIZATION_ASSIGNMENT ( #157, #121, ( #138 ) ) ;
#153 = DIRECTION ( 'NONE',  ( -3.378824463837262582E-31, -1.000000000000000000, -9.510545372679882313E-17 ) ) ;
#154 = CYLINDRICAL_SURFACE ( 'NONE', #14, 0.5699999999999993960 ) ;
#155 = CALENDAR_DATE ( 2021, 7, 10 ) ;
#156 = CONICAL_SURFACE ( 'NONE', #85, 0.7499999999999975575, 0.5235987755982937086 ) ;
#157 = PERSON_AND_ORGANIZATION ( #221, #142 ) ;
#158 =( LENGTH_UNIT ( ) NAMED_UNIT ( * ) SI_UNIT ( .MILLI., .METRE. ) );
#159 = EDGE_CURVE ( 'NONE', #28, #28, #86, .T. ) ;
#160 = DATE_AND_TIME ( #106, #124 ) ;
#161 = DIRECTION ( 'NONE',  ( 0.0000000000000000000, 0.0000000000000000000, 1.000000000000000000 ) ) ;
#162 = CC_DESIGN_SECURITY_CLASSIFICATION ( #40, ( #138 ) ) ;
#163 = EDGE_LOOP ( 'NONE', ( #74 ) ) ;
#164 = EDGE_LOOP ( 'NONE', ( #57 ) ) ;
#165 = EDGE_LOOP ( 'NONE', ( #92 ) ) ;
#166 = CARTESIAN_POINT ( 'NONE',  ( 3.251186820264807651E-14, 0.7499999999999963363, 9.311769145362395861 ) ) ;
#167 = CYLINDRICAL_SURFACE ( 'NONE', #150, 0.7499999999999986677 ) ;
#168 = CARTESIAN_POINT ( 'NONE',  ( 1.040461438975253740E-13, 0.7499999999999963363, 29.80000000000000071 ) ) ;
#169 = CC_DESIGN_DATE_AND_TIME_ASSIGNMENT ( #212, #84, ( #144 ) ) ;
#170 = FACE_BOUND ( 'NONE', #23, .T. ) ;
#171 = AXIS2_PLACEMENT_3D ( 'NONE', #60, #59, #153 ) ;
#172 = DIRECTION ( 'NONE',  ( -3.491481338843133355E-15, 1.224646799147353207E-16, -1.000000000000000000 ) ) ;
#173 = PERSON_AND_ORGANIZATION_ROLE ( 'classification_officer' ) ;
#174 = CONICAL_SURFACE ( 'NONE', #185, 0.5500000000000001554, 0.7853981633974510546 ) ;
#175 = PERSON_AND_ORGANIZATION ( #221, #142 ) ;
#176 = CARTESIAN_POINT ( 'NONE',  ( 0.0000000000000000000, 0.0000000000000000000, 0.0000000000000000000 ) ) ;
#177 = EDGE_CURVE ( 'NONE', #149, #149, #112, .T. ) ;
#178 = ORIENTED_EDGE ( 'NONE', *, *, #177, .F. ) ;
#179 = AXIS2_PLACEMENT_3D ( 'NONE', #116, #79, #64 ) ;
#180 = ADVANCED_FACE ( 'NONE', ( #16, #77 ), #154, .T. ) ;
#181 = ORIENTED_EDGE ( 'NONE', *, *, #127, .T. ) ;
#182 = DIRECTION ( 'NONE',  ( 3.491481338843133355E-15, -1.224646799147353207E-16, 1.000000000000000000 ) ) ;
#183 = DIRECTION ( 'NONE',  ( 4.275831445896958607E-31, 1.000000000000000000, 1.224646799147353207E-16 ) ) ;
#184 = AXIS2_PLACEMENT_3D ( 'NONE', #38, #131, #108 ) ;
#185 = AXIS2_PLACEMENT_3D ( 'NONE', #81, #97, #45 ) ;
#186 = DIRECTION ( 'NONE',  ( 0.0000000000000000000, 1.000000000000000000, 0.0000000000000000000 ) ) ;
#187 = CC_DESIGN_PERSON_AND_ORGANIZATION_ASSIGNMENT ( #194, #89, ( #69 ) ) ;
#188 = FACE_OUTER_BOUND ( 'NONE', #43, .T. ) ;
#189 = DIRECTION ( 'NONE',  ( 0.0000000000000000000, -1.000000000000000000, 0.0000000000000000000 ) ) ;
#190 = LOCAL_TIME ( 15, 47, 12.00000000000000000, #2 ) ;
#191 = EDGE_CURVE ( 'NONE', #62, #62, #143, .T. ) ;
#192 = AXIS2_PLACEMENT_3D ( 'NONE', #205, #10, #204 ) ;
#193 = CARTESIAN_POINT ( 'NONE',  ( 1.195799373990873293E-15, 0.5699999999999988409, 0.3424905528457125592 ) ) ;
#194 = PERSON_AND_ORGANIZATION ( #221, #142 ) ;
#195 = DATE_AND_TIME ( #155, #190 ) ;
#196 = LOCAL_TIME ( 15, 47, 12.00000000000000000, #20 ) ;
#197 = CALENDAR_DATE ( 2021, 7, 10 ) ;
#198 = EDGE_CURVE ( 'NONE', #103, #103, #125, .T. ) ;
#199 = APPROVAL_DATE_TIME ( #33, #117 ) ;
#200 = APPROVAL_PERSON_ORGANIZATION ( #122, #129, #31 ) ;
#201 = CIRCLE ( 'NONE', #80, 0.7499999999999975575 ) ;
#202 = CC_DESIGN_APPROVAL ( #129, ( #138 ) ) ;
#203 = FACE_OUTER_BOUND ( 'NONE', #165, .T. ) ;
#204 = DIRECTION ( 'NONE',  ( 0.0000000000000000000, 1.000000000000000000, 0.0000000000000000000 ) ) ;
#205 = CARTESIAN_POINT ( 'NONE',  ( 3.142333204958820020E-14, -1.102182119232617714E-15, 9.000000000000000000 ) ) ;
#206 = DIRECTION ( 'NONE',  ( 3.491481338843133355E-15, -1.224646799147353207E-16, 1.000000000000000000 ) ) ;
#207 = MANIFOLD_SOLID_BREP ( 'Corps-Déplacer/Copier1[2]', #111 ) ;
#208 = DIRECTION ( 'NONE',  ( 0.0000000000000000000, 1.000000000000000000, 0.0000000000000000000 ) ) ;
#209 = COORDINATED_UNIVERSAL_TIME_OFFSET ( 1, 0, .AHEAD. ) ;
#210 = PERSON_AND_ORGANIZATION ( #221, #142 ) ;
#211 = PERSON_AND_ORGANIZATION ( #221, #142 ) ;
#212 = DATE_AND_TIME ( #197, #90 ) ;
#213 = AXIS2_PLACEMENT_3D ( 'NONE', #11, #172, #186 ) ;
#214 = PERSON_AND_ORGANIZATION_ROLE ( 'creator' ) ;
#215 = EDGE_LOOP ( 'NONE', ( #181 ) ) ;
#216 = EDGE_LOOP ( 'NONE', ( #55 ) ) ;
#217 = ORIENTED_EDGE ( 'NONE', *, *, #105, .F. ) ;
#218 = AXIS2_PLACEMENT_3D ( 'NONE', #44, #26, #118 ) ;
#219 = DIRECTION ( 'NONE',  ( 0.0000000000000000000, 1.000000000000000000, 0.0000000000000000000 ) ) ;
#220 = FACE_OUTER_BOUND ( 'NONE', #70, .T. ) ;
#221 = PERSON ( 'UNSPECIFIED', 'UNSPECIFIED', 'UNSPECIFIED', ('UNSPECIFIED'), ('UNSPECIFIED'), ('UNSPECIFIED') ) ;
#222 = CARTESIAN_POINT ( 'NONE',  ( 1.047444401652940007E-13, 0.5499999999999964917, 30.00000000000000000 ) ) ;
#223 = CARTESIAN_POINT ( 'NONE',  ( 3.142333204958820020E-14, 4.274315380586278171E-33, 9.000000000000000000 ) ) ;
ENDSEC;
END-ISO-10303-21;
