ISO-10303-21;
HEADER;
FILE_DESCRIPTION (( 'STEP AP203' ),
    '1' );
FILE_NAME ('37010.step',
    '2021-10-07T13:47:12',
    ( '' ),
    ( '' ),
    'SwSTEP 2.0',
    'SolidWorks 2019',
    '' );
FILE_SCHEMA (( 'CONFIG_CONTROL_DESIGN' ));
ENDSEC;

DATA;
#1 = CALENDAR_DATE ( 2021, 7, 10 ) ;
#2 = CC_DESIGN_PERSON_AND_ORGANIZATION_ASSIGNMENT ( #155, #46, ( #164 ) ) ;
#3 = AXIS2_PLACEMENT_3D ( 'NONE', #68, #47, #186 ) ;
#4 = FACE_OUTER_BOUND ( 'NONE', #139, .T. ) ;
#5 = ORGANIZATION ( 'UNSPECIFIED', 'UNSPECIFIED', '' ) ;
#6 = DIRECTION ( 'NONE',  ( 0.0000000000000000000, 1.000000000000000000, 0.0000000000000000000 ) ) ;
#7 = DIRECTION ( 'NONE',  ( -3.491481338843133355E-15, 1.224646799147353207E-16, -1.000000000000000000 ) ) ;
#8 = DIRECTION ( 'NONE',  ( 4.275831445896958607E-31, 1.000000000000000000, 1.224646799147353207E-16 ) ) ;
#9 = CARTESIAN_POINT ( 'NONE',  ( 3.257234243337362660E-14, 0.7499999999999963363, 9.329089653438085605 ) ) ;
#10 = PERSON_AND_ORGANIZATION ( #97, #5 ) ;
#11 = CIRCLE ( 'NONE', #178, 0.5599999999999989431 ) ;
#12 = COORDINATED_UNIVERSAL_TIME_OFFSET ( 1, 0, .AHEAD. ) ;
#13 = CALENDAR_DATE ( 2021, 7, 10 ) ;
#14 = APPROVAL ( #182, 'UNSPECIFIED' ) ;
#15 = PERSON_AND_ORGANIZATION ( #97, #5 ) ;
#16 = EDGE_LOOP ( 'NONE', ( #49 ) ) ;
#17 = ORIENTED_EDGE ( 'NONE', *, *, #55, .F. ) ;
#18 = ADVANCED_FACE ( 'NONE', ( #223 ), #103, .T. ) ;
#19 = CARTESIAN_POINT ( 'NONE',  ( 1.047444401652940007E-13, 4.124339402320053683E-33, 30.00000000000000000 ) ) ;
#20 = CARTESIAN_POINT ( 'NONE',  ( 3.142333204958820020E-14, -1.102182119232617714E-15, 9.000000000000000000 ) ) ;
#21 = DIRECTION ( 'NONE',  ( 3.491481338843133355E-15, -1.224646799147353207E-16, 1.000000000000000000 ) ) ;
#22 = AXIS2_PLACEMENT_3D ( 'NONE', #20, #206, #6 ) ;
#23 = CARTESIAN_POINT ( 'NONE',  ( 1.047444401652940007E-13, 0.5499999999999964917, 30.00000000000000000 ) ) ;
#24 = CC_DESIGN_PERSON_AND_ORGANIZATION_ASSIGNMENT ( #10, #151, ( #81 ) ) ;
#25 = APPROVAL_PERSON_ORGANIZATION ( #67, #14, #187 ) ;
#26 = PLANE ( 'NONE',  #197 ) ;
#27 = CARTESIAN_POINT ( 'NONE',  ( 0.0000000000000000000, 0.0000000000000000000, 0.0000000000000000000 ) ) ;
#28 = APPROVAL_DATE_TIME ( #80, #137 ) ;
#29 = CIRCLE ( 'NONE', #194, 0.5600000000000003864 ) ;
#30 = DATE_AND_TIME ( #136, #77 ) ;
#31 = CC_DESIGN_DATE_AND_TIME_ASSIGNMENT ( #30, #172, ( #176 ) ) ;
#32 = PERSON_AND_ORGANIZATION_ROLE ( 'creator' ) ;
#33 = EDGE_LOOP ( 'NONE', ( #51 ) ) ;
#34 = CONICAL_SURFACE ( 'NONE', #127, 0.5599999999999989431, 1.029744258676649649 ) ;
#35 = ORIENTED_EDGE ( 'NONE', *, *, #141, .F. ) ;
#36 = ORIENTED_EDGE ( 'NONE', *, *, #85, .T. ) ;
#37 = ADVANCED_FACE ( 'NONE', ( #100 ), #34, .T. ) ;
#38 = ADVANCED_FACE ( 'NONE', ( #109, #177 ), #216, .T. ) ;
#39 = DIRECTION ( 'NONE',  ( -3.491481338843133355E-15, 1.224646799147353207E-16, -1.000000000000000000 ) ) ;
#40 = APPROVAL_PERSON_ORGANIZATION ( #195, #118, #201 ) ;
#41 = FACE_OUTER_BOUND ( 'NONE', #102, .T. ) ;
#42 = VERTEX_POINT ( 'NONE', #93 ) ;
#43 =( LENGTH_UNIT ( ) NAMED_UNIT ( * ) SI_UNIT ( .MILLI., .METRE. ) );
#44 = ADVANCED_FACE ( 'NONE', ( #4 ), #105, .F. ) ;
#45 = DIRECTION ( 'NONE',  ( 0.0000000000000000000, 1.000000000000000000, 0.0000000000000000000 ) ) ;
#46 = PERSON_AND_ORGANIZATION_ROLE ( 'creator' ) ;
#47 = DIRECTION ( 'NONE',  ( 3.491481338843133355E-15, -1.224646799147353207E-16, 1.000000000000000000 ) ) ;
#48 = SECURITY_CLASSIFICATION_LEVEL ( 'unclassified' ) ;
#49 = ORIENTED_EDGE ( 'NONE', *, *, #70, .T. ) ;
#50 =( GEOMETRIC_REPRESENTATION_CONTEXT ( 3 ) GLOBAL_UNCERTAINTY_ASSIGNED_CONTEXT ( ( #142 ) ) GLOBAL_UNIT_ASSIGNED_CONTEXT ( ( #43, #198, #114 ) ) REPRESENTATION_CONTEXT ( 'NONE', 'WORKASPACE' ) );
#51 = ORIENTED_EDGE ( 'NONE', *, *, #141, .T. ) ;
#52 = DATE_AND_TIME ( #1, #123 ) ;
#53 = CLOSED_SHELL ( 'NONE', ( #37, #145, #18 ) ) ;
#54 = DIRECTION ( 'NONE',  ( 4.275831445896958607E-31, 1.000000000000000000, 1.224646799147353207E-16 ) ) ;
#55 = EDGE_CURVE ( 'NONE', #76, #76, #29, .T. ) ;
#56 = DIRECTION ( 'NONE',  ( 3.491481338843133355E-15, -1.224646799147353207E-16, 1.000000000000000000 ) ) ;
#57 = APPLICATION_PROTOCOL_DEFINITION ( 'international standard', 'config_control_design', 1994, #156 ) ;
#58 = AXIS2_PLACEMENT_3D ( 'NONE', #19, #90, #54 ) ;
#59 = DIRECTION ( 'NONE',  ( -3.491481338843133355E-15, 1.224646799147353207E-16, -1.000000000000000000 ) ) ;
#60 = CARTESIAN_POINT ( 'NONE',  ( 3.142333204958820020E-14, 4.199327391453188165E-33, 9.000000000000000000 ) ) ;
#61 = CC_DESIGN_PERSON_AND_ORGANIZATION_ASSIGNMENT ( #15, #32, ( #176 ) ) ;
#62 = AXIS2_PLACEMENT_3D ( 'NONE', #166, #125, #140 ) ;
#63 = VERTEX_POINT ( 'NONE', #23 ) ;
#64 = LOCAL_TIME ( 15, 47, 12.00000000000000000, #170 ) ;
#65 = APPROVAL_DATE_TIME ( #135, #118 ) ;
#66 = ORIENTED_EDGE ( 'NONE', *, *, #111, .T. ) ;
#67 = PERSON_AND_ORGANIZATION ( #97, #5 ) ;
#68 = CARTESIAN_POINT ( 'NONE',  ( 3.142333204958820020E-14, 4.199327391453188165E-33, 9.000000000000000000 ) ) ;
#69 = AXIS2_PLACEMENT_3D ( 'NONE', #91, #78, #149 ) ;
#70 = EDGE_CURVE ( 'NONE', #63, #63, #184, .T. ) ;
#71 = DIRECTION ( 'NONE',  ( 3.439160614977213574E-31, 1.000000000000000000, 9.680376540049165573E-17 ) ) ;
#72 = DIRECTION ( 'NONE',  ( -3.439160614977213574E-31, -1.000000000000000000, -9.680376540049165573E-17 ) ) ;
#73 = MECHANICAL_CONTEXT ( 'NONE', #156, 'mechanical' ) ;
#74 = CYLINDRICAL_SURFACE ( 'NONE', #169, 0.7499999999999986677 ) ;
#75 = CC_DESIGN_PERSON_AND_ORGANIZATION_ASSIGNMENT ( #99, #82, ( #134 ) ) ;
#76 = VERTEX_POINT ( 'NONE', #213 ) ;
#77 = LOCAL_TIME ( 15, 47, 12.00000000000000000, #218 ) ;
#78 = DIRECTION ( 'NONE',  ( 0.0000000000000000000, 0.0000000000000000000, 1.000000000000000000 ) ) ;
#79 = EDGE_CURVE ( 'NONE', #95, #95, #120, .T. ) ;
#80 = DATE_AND_TIME ( #96, #92 ) ;
#81 = PRODUCT ( '37010', '37010', '', ( #73 ) ) ;
#82 = PERSON_AND_ORGANIZATION_ROLE ( 'classification_officer' ) ;
#83 = APPROVAL_ROLE ( '' ) ;
#84 = ORIENTED_EDGE ( 'NONE', *, *, #79, .T. ) ;
#85 = EDGE_CURVE ( 'NONE', #42, #42, #11, .T. ) ;
#86 = ORIENTED_EDGE ( 'NONE', *, *, #79, .F. ) ;
#87 = DIRECTION ( 'NONE',  ( 0.0000000000000000000, -1.000000000000000000, 0.0000000000000000000 ) ) ;
#88 = CC_DESIGN_PERSON_AND_ORGANIZATION_ASSIGNMENT ( #153, #116, ( #164 ) ) ;
#89 = AXIS2_PLACEMENT_3D ( 'NONE', #132, #196, #45 ) ;
#90 = DIRECTION ( 'NONE',  ( -3.491481338843133355E-15, 1.224646799147353207E-16, -1.000000000000000000 ) ) ;
#91 = CARTESIAN_POINT ( 'NONE',  ( 0.0000000000000000000, 0.0000000000000000000, 0.0000000000000000000 ) ) ;
#92 = LOCAL_TIME ( 15, 47, 12.00000000000000000, #12 ) ;
#93 = CARTESIAN_POINT ( 'NONE',  ( 1.174820437605068530E-15, 0.5599999999999989431, 0.3364819466554369032 ) ) ;
#94 = DIRECTION ( 'NONE',  ( -4.275831445896958607E-31, -1.000000000000000000, -1.224646799147353207E-16 ) ) ;
#95 = VERTEX_POINT ( 'NONE', #179 ) ;
#96 = CALENDAR_DATE ( 2021, 7, 10 ) ;
#97 = PERSON ( 'UNSPECIFIED', 'UNSPECIFIED', 'UNSPECIFIED', ('UNSPECIFIED'), ('UNSPECIFIED'), ('UNSPECIFIED') ) ;
#98 = AXIS2_PLACEMENT_3D ( 'NONE', #192, #7, #146 ) ;
#99 = PERSON_AND_ORGANIZATION ( #97, #5 ) ;
#100 = FACE_OUTER_BOUND ( 'NONE', #200, .T. ) ;
#101 = COORDINATED_UNIVERSAL_TIME_OFFSET ( 1, 0, .AHEAD. ) ;
#102 = EDGE_LOOP ( 'NONE', ( #159 ) ) ;
#103 = PLANE ( 'NONE',  #3 ) ;
#104 = CC_DESIGN_DATE_AND_TIME_ASSIGNMENT ( #221, #220, ( #134 ) ) ;
#105 = PLANE ( 'NONE',  #58 ) ;
#106 = DIRECTION ( 'NONE',  ( 0.0000000000000000000, 1.000000000000000000, 0.0000000000000000000 ) ) ;
#107 = ADVANCED_BREP_SHAPE_REPRESENTATION ( '37010', ( #204, #138, #69 ), #50 ) ;
#108 = CIRCLE ( 'NONE', #205, 0.7500000000000000000 ) ;
#109 = FACE_BOUND ( 'NONE', #190, .T. ) ;
#110 = FACE_OUTER_BOUND ( 'NONE', #119, .T. ) ;
#111 = EDGE_CURVE ( 'NONE', #217, #217, #108, .T. ) ;
#112 = FACE_OUTER_BOUND ( 'NONE', #188, .T. ) ;
#113 = VERTEX_POINT ( 'NONE', #9 ) ;
#114 =( NAMED_UNIT ( * ) SI_UNIT ( $, .STERADIAN. ) SOLID_ANGLE_UNIT ( ) );
#115 = DIRECTION ( 'NONE',  ( 3.491481338843133355E-15, -1.224646799147353207E-16, 1.000000000000000000 ) ) ;
#116 = PERSON_AND_ORGANIZATION_ROLE ( 'design_supplier' ) ;
#117 = PERSON_AND_ORGANIZATION ( #97, #5 ) ;
#118 = APPROVAL ( #185, 'UNSPECIFIED' ) ;
#119 = EDGE_LOOP ( 'NONE', ( #66 ) ) ;
#120 = CIRCLE ( 'NONE', #22, 0.5600000000000003864 ) ;
#121 = CC_DESIGN_APPROVAL ( #137, ( #164 ) ) ;
#122 = DIRECTION ( 'NONE',  ( -3.491481338843133355E-15, 1.224646799147353207E-16, -1.000000000000000000 ) ) ;
#123 = LOCAL_TIME ( 15, 47, 12.00000000000000000, #101 ) ;
#124 = CC_DESIGN_APPROVAL ( #118, ( #176 ) ) ;
#125 = DIRECTION ( 'NONE',  ( -3.491481338843133355E-15, 1.224646799147353207E-16, -1.000000000000000000 ) ) ;
#126 = CARTESIAN_POINT ( 'NONE',  ( 1.174820437605068332E-15, -4.120715389424511745E-17, 0.3364819466554368477 ) ) ;
#127 = AXIS2_PLACEMENT_3D ( 'NONE', #126, #56, #72 ) ;
#128 = APPLICATION_PROTOCOL_DEFINITION ( 'international standard', 'config_control_design', 1994, #167 ) ;
#129 = FACE_OUTER_BOUND ( 'NONE', #191, .T. ) ;
#130 = DIRECTION ( 'NONE',  ( -3.491481338843133355E-15, 1.224646799147353207E-16, -1.000000000000000000 ) ) ;
#131 = CIRCLE ( 'NONE', #98, 0.7499999999999975575 ) ;
#132 = CARTESIAN_POINT ( 'NONE',  ( 1.047444401652940007E-13, -3.673940397442059178E-15, 30.00000000000000000 ) ) ;
#133 = CARTESIAN_POINT ( 'NONE',  ( 0.0000000000000000000, 0.0000000000000000000, 0.0000000000000000000 ) ) ;
#134 = SECURITY_CLASSIFICATION ( '', '', #48 ) ;
#135 = DATE_AND_TIME ( #171, #165 ) ;
#136 = CALENDAR_DATE ( 2021, 7, 10 ) ;
#137 = APPROVAL ( #199, 'UNSPECIFIED' ) ;
#138 = MANIFOLD_SOLID_BREP ( 'Corps-Déplacer/Copier1[2]', #53 ) ;
#139 = EDGE_LOOP ( 'NONE', ( #160 ) ) ;
#140 = DIRECTION ( 'NONE',  ( 0.0000000000000000000, 1.000000000000000000, 0.0000000000000000000 ) ) ;
#141 = EDGE_CURVE ( 'NONE', #113, #113, #131, .T. ) ;
#142 = UNCERTAINTY_MEASURE_WITH_UNIT (LENGTH_MEASURE( 1.000000000000000082E-05 ), #43, 'distance_accuracy_value', 'NONE');
#143 = CARTESIAN_POINT ( 'NONE',  ( 1.040461438975253740E-13, -3.649447461459112464E-15, 29.80000000000000071 ) ) ;
#144 = CC_DESIGN_SECURITY_CLASSIFICATION ( #134, ( #164 ) ) ;
#145 = ADVANCED_FACE ( 'NONE', ( #112, #180 ), #181, .T. ) ;
#146 = DIRECTION ( 'NONE',  ( 0.0000000000000000000, 1.000000000000000000, 0.0000000000000000000 ) ) ;
#147 = CONICAL_SURFACE ( 'NONE', #89, 0.5500000000000001554, 0.7853981633974510546 ) ;
#148 = FACE_OUTER_BOUND ( 'NONE', #189, .T. ) ;
#149 = DIRECTION ( 'NONE',  ( 1.000000000000000000, 0.0000000000000000000, 0.0000000000000000000 ) ) ;
#150 = AXIS2_PLACEMENT_3D ( 'NONE', #133, #59, #8 ) ;
#151 = PERSON_AND_ORGANIZATION_ROLE ( 'design_owner' ) ;
#152 = ADVANCED_FACE ( 'NONE', ( #148 ), #26, .F. ) ;
#153 = PERSON_AND_ORGANIZATION ( #97, #5 ) ;
#154 = ADVANCED_FACE ( 'NONE', ( #41, #214 ), #147, .T. ) ;
#155 = PERSON_AND_ORGANIZATION ( #97, #5 ) ;
#156 = APPLICATION_CONTEXT ( 'configuration controlled 3d designs of mechanical parts and assemblies' ) ;
#157 = COORDINATED_UNIVERSAL_TIME_OFFSET ( 1, 0, .AHEAD. ) ;
#158 = CLOSED_SHELL ( 'NONE', ( #152, #38, #183, #154, #44 ) ) ;
#159 = ORIENTED_EDGE ( 'NONE', *, *, #111, .F. ) ;
#160 = ORIENTED_EDGE ( 'NONE', *, *, #70, .F. ) ;
#161 = AXIS2_PLACEMENT_3D ( 'NONE', #163, #21, #87 ) ;
#162 = PRODUCT_DEFINITION_SHAPE ( 'NONE', 'NONE',  #176 ) ;
#163 = CARTESIAN_POINT ( 'NONE',  ( 3.257234243337362660E-14, -1.142483978304164267E-15, 9.329089653438085605 ) ) ;
#164 = PRODUCT_DEFINITION_FORMATION_WITH_SPECIFIED_SOURCE ( 'ANY', '', #81, .NOT_KNOWN. ) ;
#165 = LOCAL_TIME ( 15, 47, 12.00000000000000000, #157 ) ;
#166 = CARTESIAN_POINT ( 'NONE',  ( 1.047444401652940007E-13, -3.673940397442059178E-15, 30.00000000000000000 ) ) ;
#167 = APPLICATION_CONTEXT ( 'configuration controlled 3d designs of mechanical parts and assemblies' ) ;
#168 = CARTESIAN_POINT ( 'NONE',  ( 1.040461438975253740E-13, 0.7499999999999963363, 29.80000000000000071 ) ) ;
#169 = AXIS2_PLACEMENT_3D ( 'NONE', #27, #130, #211 ) ;
#170 = COORDINATED_UNIVERSAL_TIME_OFFSET ( 1, 0, .AHEAD. ) ;
#171 = CALENDAR_DATE ( 2021, 7, 10 ) ;
#172 = DATE_TIME_ROLE ( 'creation_date' ) ;
#173 = EDGE_LOOP ( 'NONE', ( #84 ) ) ;
#174 = ORIENTED_EDGE ( 'NONE', *, *, #85, .F. ) ;
#175 = DIRECTION ( 'NONE',  ( 0.0000000000000000000, 1.000000000000000000, 0.0000000000000000000 ) ) ;
#176 = PRODUCT_DEFINITION ( 'UNKNOWN', '', #164, #202 ) ;
#177 = FACE_OUTER_BOUND ( 'NONE', #33, .T. ) ;
#178 = AXIS2_PLACEMENT_3D ( 'NONE', #210, #39, #71 ) ;
#179 = CARTESIAN_POINT ( 'NONE',  ( 3.142333204958820020E-14, 0.5599999999999992761, 9.000000000000000000 ) ) ;
#180 = FACE_OUTER_BOUND ( 'NONE', #173, .T. ) ;
#181 = CYLINDRICAL_SURFACE ( 'NONE', #150, 0.5599999999999997202 ) ;
#182 = APPROVAL_STATUS ( 'not_yet_approved' ) ;
#183 = ADVANCED_FACE ( 'NONE', ( #129, #110 ), #74, .T. ) ;
#184 = CIRCLE ( 'NONE', #62, 0.5500000000000001554 ) ;
#185 = APPROVAL_STATUS ( 'not_yet_approved' ) ;
#186 = DIRECTION ( 'NONE',  ( -4.275831445896958607E-31, -1.000000000000000000, -1.224646799147353207E-16 ) ) ;
#187 = APPROVAL_ROLE ( '' ) ;
#188 = EDGE_LOOP ( 'NONE', ( #174 ) ) ;
#189 = EDGE_LOOP ( 'NONE', ( #203 ) ) ;
#190 = EDGE_LOOP ( 'NONE', ( #17 ) ) ;
#191 = EDGE_LOOP ( 'NONE', ( #35 ) ) ;
#192 = CARTESIAN_POINT ( 'NONE',  ( 3.257234243337362660E-14, -1.142483978304164267E-15, 9.329089653438085605 ) ) ;
#193 = SHAPE_DEFINITION_REPRESENTATION ( #162, #107 ) ;
#194 = AXIS2_PLACEMENT_3D ( 'NONE', #207, #122, #106 ) ;
#195 = PERSON_AND_ORGANIZATION ( #97, #5 ) ;
#196 = DIRECTION ( 'NONE',  ( -3.491481338843133355E-15, 1.224646799147353207E-16, -1.000000000000000000 ) ) ;
#197 = AXIS2_PLACEMENT_3D ( 'NONE', #60, #115, #94 ) ;
#198 =( NAMED_UNIT ( * ) PLANE_ANGLE_UNIT ( ) SI_UNIT ( $, .RADIAN. ) );
#199 = APPROVAL_STATUS ( 'not_yet_approved' ) ;
#200 = EDGE_LOOP ( 'NONE', ( #36 ) ) ;
#201 = APPROVAL_ROLE ( '' ) ;
#202 = DESIGN_CONTEXT ( 'detailed design', #167, 'design' ) ;
#203 = ORIENTED_EDGE ( 'NONE', *, *, #55, .T. ) ;
#204 = MANIFOLD_SOLID_BREP ( 'Corps-Déplacer/Copier1[1]', #158 ) ;
#205 = AXIS2_PLACEMENT_3D ( 'NONE', #143, #208, #175 ) ;
#206 = DIRECTION ( 'NONE',  ( -3.491481338843133355E-15, 1.224646799147353207E-16, -1.000000000000000000 ) ) ;
#207 = CARTESIAN_POINT ( 'NONE',  ( 3.142333204958820020E-14, -1.102182119232617714E-15, 9.000000000000000000 ) ) ;
#208 = DIRECTION ( 'NONE',  ( -3.491481338843133355E-15, 1.224646799147353207E-16, -1.000000000000000000 ) ) ;
#209 = APPROVAL_DATE_TIME ( #52, #14 ) ;
#210 = CARTESIAN_POINT ( 'NONE',  ( 1.174820437605068332E-15, -4.120715389424511745E-17, 0.3364819466554368477 ) ) ;
#211 = DIRECTION ( 'NONE',  ( 4.275831445896959482E-31, 1.000000000000000000, 1.224646799147353207E-16 ) ) ;
#212 = PRODUCT_RELATED_PRODUCT_CATEGORY ( 'detail', '', ( #81 ) ) ;
#213 = CARTESIAN_POINT ( 'NONE',  ( 3.142333204958820020E-14, 0.5599999999999992761, 9.000000000000000000 ) ) ;
#214 = FACE_BOUND ( 'NONE', #16, .T. ) ;
#215 = APPROVAL_PERSON_ORGANIZATION ( #117, #137, #83 ) ;
#216 = CONICAL_SURFACE ( 'NONE', #161, 0.7499999999999975575, 0.5235987755982931535 ) ;
#217 = VERTEX_POINT ( 'NONE', #168 ) ;
#218 = COORDINATED_UNIVERSAL_TIME_OFFSET ( 1, 0, .AHEAD. ) ;
#219 = CC_DESIGN_APPROVAL ( #14, ( #134 ) ) ;
#220 = DATE_TIME_ROLE ( 'classification_date' ) ;
#221 = DATE_AND_TIME ( #13, #64 ) ;
#222 = EDGE_LOOP ( 'NONE', ( #86 ) ) ;
#223 = FACE_OUTER_BOUND ( 'NONE', #222, .T. ) ;
ENDSEC;
END-ISO-10303-21;
