ISO-10303-21;
HEADER;
FILE_DESCRIPTION (( 'STEP AP203' ),
    '1' );
FILE_NAME ('37009.step',
    '2021-10-07T13:47:11',
    ( '' ),
    ( '' ),
    'SwSTEP 2.0',
    'SolidWorks 2019',
    '' );
FILE_SCHEMA (( 'CONFIG_CONTROL_DESIGN' ));
ENDSEC;

DATA;
#1 = APPROVAL_DATE_TIME ( #49, #169 ) ;
#2 = EDGE_CURVE ( 'NONE', #151, #151, #203, .T. ) ;
#3 = ORIENTED_EDGE ( 'NONE', *, *, #67, .T. ) ;
#4 = ADVANCED_BREP_SHAPE_REPRESENTATION ( '37009', ( #199, #197, #149 ), #127 ) ;
#5 = ORIENTED_EDGE ( 'NONE', *, *, #30, .T. ) ;
#6 = AXIS2_PLACEMENT_3D ( 'NONE', #128, #147, #163 ) ;
#7 = LOCAL_TIME ( 15, 47, 11.00000000000000000, #122 ) ;
#8 = ORIENTED_EDGE ( 'NONE', *, *, #30, .F. ) ;
#9 = FACE_OUTER_BOUND ( 'NONE', #210, .T. ) ;
#10 = PLANE ( 'NONE',  #173 ) ;
#11 = FACE_OUTER_BOUND ( 'NONE', #214, .T. ) ;
#12 = CARTESIAN_POINT ( 'NONE',  ( 1.040461438975253740E-13, -3.649447461459112464E-15, 29.80000000000000071 ) ) ;
#13 = ADVANCED_FACE ( 'NONE', ( #144 ), #213, .F. ) ;
#14 = DIRECTION ( 'NONE',  ( 0.0000000000000000000, 1.000000000000000000, 0.0000000000000000000 ) ) ;
#15 = PERSON_AND_ORGANIZATION_ROLE ( 'creator' ) ;
#16 = APPROVAL_STATUS ( 'not_yet_approved' ) ;
#17 = COORDINATED_UNIVERSAL_TIME_OFFSET ( 1, 0, .AHEAD. ) ;
#18 = LOCAL_TIME ( 15, 47, 11.00000000000000000, #65 ) ;
#19 = CC_DESIGN_APPROVAL ( #50, ( #146 ) ) ;
#20 = PERSON_AND_ORGANIZATION ( #178, #139 ) ;
#21 = EDGE_LOOP ( 'NONE', ( #76 ) ) ;
#22 = AXIS2_PLACEMENT_3D ( 'NONE', #196, #116, #198 ) ;
#23 = ADVANCED_FACE ( 'NONE', ( #148 ), #97, .F. ) ;
#24 = FACE_OUTER_BOUND ( 'NONE', #38, .T. ) ;
#25 = CARTESIAN_POINT ( 'NONE',  ( 0.0000000000000000000, 0.0000000000000000000, 0.0000000000000000000 ) ) ;
#26 = LOCAL_TIME ( 15, 47, 11.00000000000000000, #85 ) ;
#27 = AXIS2_PLACEMENT_3D ( 'NONE', #58, #59, #184 ) ;
#28 = CYLINDRICAL_SURFACE ( 'NONE', #74, 0.5549999999999999378 ) ;
#29 = FACE_OUTER_BOUND ( 'NONE', #194, .T. ) ;
#30 = EDGE_CURVE ( 'NONE', #202, #202, #84, .T. ) ;
#31 = PERSON_AND_ORGANIZATION_ROLE ( 'creator' ) ;
#32 =( NAMED_UNIT ( * ) PLANE_ANGLE_UNIT ( ) SI_UNIT ( $, .RADIAN. ) );
#33 = PERSON_AND_ORGANIZATION_ROLE ( 'design_owner' ) ;
#34 = CALENDAR_DATE ( 2021, 7, 10 ) ;
#35 = AXIS2_PLACEMENT_3D ( 'NONE', #81, #78, #112 ) ;
#36 = PRODUCT_DEFINITION_SHAPE ( 'NONE', 'NONE',  #146 ) ;
#37 = CC_DESIGN_PERSON_AND_ORGANIZATION_ASSIGNMENT ( #189, #33, ( #121 ) ) ;
#38 = EDGE_LOOP ( 'NONE', ( #157 ) ) ;
#39 = DIRECTION ( 'NONE',  ( -3.491481338843133355E-15, 1.224646799147353207E-16, -1.000000000000000000 ) ) ;
#40 = FACE_OUTER_BOUND ( 'NONE', #51, .T. ) ;
#41 = CARTESIAN_POINT ( 'NONE',  ( 1.047444401652940007E-13, -3.673940397442059178E-15, 30.00000000000000000 ) ) ;
#42 = FACE_OUTER_BOUND ( 'NONE', #195, .T. ) ;
#43 = LOCAL_TIME ( 15, 47, 11.00000000000000000, #17 ) ;
#44 = AXIS2_PLACEMENT_3D ( 'NONE', #41, #96, #220 ) ;
#45 = CARTESIAN_POINT ( 'NONE',  ( 3.142333204958820651E-14, -1.102182119232617911E-15, 9.000000000000001776 ) ) ;
#46 = PERSON_AND_ORGANIZATION ( #178, #139 ) ;
#47 = CC_DESIGN_PERSON_AND_ORGANIZATION_ASSIGNMENT ( #20, #89, ( #60 ) ) ;
#48 = DIRECTION ( 'NONE',  ( 0.0000000000000000000, 0.0000000000000000000, 1.000000000000000000 ) ) ;
#49 = DATE_AND_TIME ( #141, #18 ) ;
#50 = APPROVAL ( #172, 'UNSPECIFIED' ) ;
#51 = EDGE_LOOP ( 'NONE', ( #71 ) ) ;
#52 = AXIS2_PLACEMENT_3D ( 'NONE', #164, #162, #132 ) ;
#53 = DIRECTION ( 'NONE',  ( 0.0000000000000000000, 1.000000000000000000, 0.0000000000000000000 ) ) ;
#54 = ORIENTED_EDGE ( 'NONE', *, *, #185, .T. ) ;
#55 = EDGE_LOOP ( 'NONE', ( #3 ) ) ;
#56 = CARTESIAN_POINT ( 'NONE',  ( 1.164330969412166444E-15, 0.5549999999999989386, 0.3334776435602991307 ) ) ;
#57 = FACE_OUTER_BOUND ( 'NONE', #21, .T. ) ;
#58 = CARTESIAN_POINT ( 'NONE',  ( 1.164330969412166247E-15, -4.083923287733222320E-17, 0.3334776435602990752 ) ) ;
#59 = DIRECTION ( 'NONE',  ( 3.491481338843133355E-15, -1.224646799147353207E-16, 1.000000000000000000 ) ) ;
#60 = PRODUCT_DEFINITION_FORMATION_WITH_SPECIFIED_SOURCE ( 'ANY', '', #121, .NOT_KNOWN. ) ;
#61 = AXIS2_PLACEMENT_3D ( 'NONE', #45, #183, #182 ) ;
#62 = CC_DESIGN_SECURITY_CLASSIFICATION ( #217, ( #60 ) ) ;
#63 = DIRECTION ( 'NONE',  ( 3.491481338843133355E-15, -1.224646799147353207E-16, 1.000000000000000000 ) ) ;
#64 = DATE_AND_TIME ( #34, #7 ) ;
#65 = COORDINATED_UNIVERSAL_TIME_OFFSET ( 1, 0, .AHEAD. ) ;
#66 = CARTESIAN_POINT ( 'NONE',  ( 0.0000000000000000000, 0.0000000000000000000, 0.0000000000000000000 ) ) ;
#67 = EDGE_CURVE ( 'NONE', #152, #152, #160, .T. ) ;
#68 = PERSON_AND_ORGANIZATION ( #178, #139 ) ;
#69 = SECURITY_CLASSIFICATION_LEVEL ( 'unclassified' ) ;
#70 = CALENDAR_DATE ( 2021, 7, 10 ) ;
#71 = ORIENTED_EDGE ( 'NONE', *, *, #153, .T. ) ;
#72 = AXIS2_PLACEMENT_3D ( 'NONE', #125, #192, #53 ) ;
#73 = ORIENTED_EDGE ( 'NONE', *, *, #123, .F. ) ;
#74 = AXIS2_PLACEMENT_3D ( 'NONE', #101, #39, #166 ) ;
#75 = CLOSED_SHELL ( 'NONE', ( #23, #90, #79, #111, #13 ) ) ;
#76 = ORIENTED_EDGE ( 'NONE', *, *, #185, .F. ) ;
#77 = CARTESIAN_POINT ( 'NONE',  ( 3.142333204958820651E-14, 0.5549999999999999378, 9.000000000000001776 ) ) ;
#78 = DIRECTION ( 'NONE',  ( 3.491481338843133355E-15, -1.224646799147353207E-16, 1.000000000000000000 ) ) ;
#79 = ADVANCED_FACE ( 'NONE', ( #9, #11 ), #219, .T. ) ;
#80 = CC_DESIGN_APPROVAL ( #137, ( #217 ) ) ;
#81 = CARTESIAN_POINT ( 'NONE',  ( 3.142333204958820651E-14, -2.082805218291900959E-31, 9.000000000000001776 ) ) ;
#82 = DIRECTION ( 'NONE',  ( -3.491481338843133355E-15, 1.224646799147353207E-16, -1.000000000000000000 ) ) ;
#83 = CARTESIAN_POINT ( 'NONE',  ( 1.047444401652940007E-13, 0.5499999999999964917, 30.00000000000000000 ) ) ;
#84 = CIRCLE ( 'NONE', #124, 0.5500000000000001554 ) ;
#85 = COORDINATED_UNIVERSAL_TIME_OFFSET ( 1, 0, .AHEAD. ) ;
#86 = APPROVAL_ROLE ( '' ) ;
#87 = DATE_AND_TIME ( #222, #43 ) ;
#88 = APPLICATION_CONTEXT ( 'configuration controlled 3d designs of mechanical parts and assemblies' ) ;
#89 = PERSON_AND_ORGANIZATION_ROLE ( 'design_supplier' ) ;
#90 = ADVANCED_FACE ( 'NONE', ( #110, #24 ), #134, .T. ) ;
#91 = CLOSED_SHELL ( 'NONE', ( #94, #159, #103 ) ) ;
#92 = EDGE_LOOP ( 'NONE', ( #73 ) ) ;
#93 = CONICAL_SURFACE ( 'NONE', #27, 0.5549999999999989386, 1.029744258676649649 ) ;
#94 = ADVANCED_FACE ( 'NONE', ( #40 ), #93, .T. ) ;
#95 = CC_DESIGN_APPROVAL ( #169, ( #60 ) ) ;
#96 = DIRECTION ( 'NONE',  ( -3.491481338843133355E-15, 1.224646799147353207E-16, -1.000000000000000000 ) ) ;
#97 = PLANE ( 'NONE',  #35 ) ;
#98 = PRODUCT_RELATED_PRODUCT_CATEGORY ( 'detail', '', ( #121 ) ) ;
#99 = DIRECTION ( 'NONE',  ( 0.0000000000000000000, 1.000000000000000000, 0.0000000000000000000 ) ) ;
#100 = AXIS2_PLACEMENT_3D ( 'NONE', #25, #181, #180 ) ;
#101 = CARTESIAN_POINT ( 'NONE',  ( 0.0000000000000000000, 0.0000000000000000000, 0.0000000000000000000 ) ) ;
#102 = UNCERTAINTY_MEASURE_WITH_UNIT (LENGTH_MEASURE( 1.000000000000000082E-05 ), #188, 'distance_accuracy_value', 'NONE');
#103 = ADVANCED_FACE ( 'NONE', ( #29 ), #10, .T. ) ;
#104 = FACE_BOUND ( 'NONE', #211, .T. ) ;
#105 = PERSON_AND_ORGANIZATION ( #178, #139 ) ;
#106 =( NAMED_UNIT ( * ) SI_UNIT ( $, .STERADIAN. ) SOLID_ANGLE_UNIT ( ) );
#107 = LOCAL_TIME ( 15, 47, 11.00000000000000000, #207 ) ;
#108 = CC_DESIGN_PERSON_AND_ORGANIZATION_ASSIGNMENT ( #105, #31, ( #146 ) ) ;
#109 = ORIENTED_EDGE ( 'NONE', *, *, #2, .F. ) ;
#110 = FACE_BOUND ( 'NONE', #92, .T. ) ;
#111 = ADVANCED_FACE ( 'NONE', ( #57, #104 ), #145, .T. ) ;
#112 = DIRECTION ( 'NONE',  ( -4.275831445896958607E-31, -1.000000000000000000, -1.224646799147353207E-16 ) ) ;
#113 = APPLICATION_CONTEXT ( 'configuration controlled 3d designs of mechanical parts and assemblies' ) ;
#114 = DIRECTION ( 'NONE',  ( -3.491481338843133355E-15, 1.224646799147353207E-16, -1.000000000000000000 ) ) ;
#115 = FACE_OUTER_BOUND ( 'NONE', #55, .T. ) ;
#116 = DIRECTION ( 'NONE',  ( 3.491481338843133355E-15, -1.224646799147353207E-16, 1.000000000000000000 ) ) ;
#117 = PERSON_AND_ORGANIZATION_ROLE ( 'classification_officer' ) ;
#118 = APPROVAL_DATE_TIME ( #87, #50 ) ;
#119 = CARTESIAN_POINT ( 'NONE',  ( 1.040461438975253740E-13, 0.7499999999999963363, 29.80000000000000071 ) ) ;
#120 = PERSON_AND_ORGANIZATION ( #178, #139 ) ;
#121 = PRODUCT ( '37009', '37009', '', ( #140 ) ) ;
#122 = COORDINATED_UNIVERSAL_TIME_OFFSET ( 1, 0, .AHEAD. ) ;
#123 = EDGE_CURVE ( 'NONE', #135, #135, #193, .T. ) ;
#124 = AXIS2_PLACEMENT_3D ( 'NONE', #131, #218, #130 ) ;
#125 = CARTESIAN_POINT ( 'NONE',  ( 3.260257954873640795E-14, -1.143544553542889311E-15, 9.337749907475931366 ) ) ;
#126 = EDGE_LOOP ( 'NONE', ( #176 ) ) ;
#127 =( GEOMETRIC_REPRESENTATION_CONTEXT ( 3 ) GLOBAL_UNCERTAINTY_ASSIGNED_CONTEXT ( ( #102 ) ) GLOBAL_UNIT_ASSIGNED_CONTEXT ( ( #188, #32, #106 ) ) REPRESENTATION_CONTEXT ( 'NONE', 'WORKASPACE' ) );
#128 = CARTESIAN_POINT ( 'NONE',  ( 1.047444401652940007E-13, 4.124339402320053683E-33, 30.00000000000000000 ) ) ;
#129 = CC_DESIGN_PERSON_AND_ORGANIZATION_ASSIGNMENT ( #68, #15, ( #60 ) ) ;
#130 = DIRECTION ( 'NONE',  ( 0.0000000000000000000, 1.000000000000000000, 0.0000000000000000000 ) ) ;
#131 = CARTESIAN_POINT ( 'NONE',  ( 1.047444401652940007E-13, -3.673940397442059178E-15, 30.00000000000000000 ) ) ;
#132 = DIRECTION ( 'NONE',  ( 3.470144043940971932E-31, 1.000000000000000000, 9.767587139509067055E-17 ) ) ;
#133 = CARTESIAN_POINT ( 'NONE',  ( 3.260257954873640795E-14, 0.7499999999999963363, 9.337749907475931366 ) ) ;
#134 = CONICAL_SURFACE ( 'NONE', #22, 0.7499999999999975575, 0.5235987755982931535 ) ;
#135 = VERTEX_POINT ( 'NONE', #77 ) ;
#136 = CALENDAR_DATE ( 2021, 7, 10 ) ;
#137 = APPROVAL ( #16, 'UNSPECIFIED' ) ;
#138 = PERSON_AND_ORGANIZATION ( #178, #139 ) ;
#139 = ORGANIZATION ( 'UNSPECIFIED', 'UNSPECIFIED', '' ) ;
#140 = MECHANICAL_CONTEXT ( 'NONE', #113, 'mechanical' ) ;
#141 = CALENDAR_DATE ( 2021, 7, 10 ) ;
#142 = ORIENTED_EDGE ( 'NONE', *, *, #67, .F. ) ;
#143 = EDGE_LOOP ( 'NONE', ( #8 ) ) ;
#144 = FACE_OUTER_BOUND ( 'NONE', #143, .T. ) ;
#145 = CONICAL_SURFACE ( 'NONE', #44, 0.5500000000000001554, 0.7853981633974510546 ) ;
#146 = PRODUCT_DEFINITION ( 'UNKNOWN', '', #60, #168 ) ;
#147 = DIRECTION ( 'NONE',  ( -3.491481338843133355E-15, 1.224646799147353207E-16, -1.000000000000000000 ) ) ;
#148 = FACE_OUTER_BOUND ( 'NONE', #126, .T. ) ;
#149 = AXIS2_PLACEMENT_3D ( 'NONE', #66, #48, #171 ) ;
#150 = CARTESIAN_POINT ( 'NONE',  ( 3.142333204958820651E-14, -1.102182119232617911E-15, 9.000000000000001776 ) ) ;
#151 = VERTEX_POINT ( 'NONE', #133 ) ;
#152 = VERTEX_POINT ( 'NONE', #221 ) ;
#153 = EDGE_CURVE ( 'NONE', #215, #215, #204, .T. ) ;
#154 = APPROVAL_ROLE ( '' ) ;
#155 = APPROVAL_PERSON_ORGANIZATION ( #120, #50, #154 ) ;
#156 = APPLICATION_PROTOCOL_DEFINITION ( 'international standard', 'config_control_design', 1994, #113 ) ;
#157 = ORIENTED_EDGE ( 'NONE', *, *, #2, .T. ) ;
#158 = DATE_AND_TIME ( #70, #107 ) ;
#159 = ADVANCED_FACE ( 'NONE', ( #42, #115 ), #28, .T. ) ;
#160 = CIRCLE ( 'NONE', #61, 0.5550000000000010481 ) ;
#161 = CIRCLE ( 'NONE', #201, 0.7500000000000000000 ) ;
#162 = DIRECTION ( 'NONE',  ( -3.491481338843133355E-15, 1.224646799147353207E-16, -1.000000000000000000 ) ) ;
#163 = DIRECTION ( 'NONE',  ( 4.275831445896958607E-31, 1.000000000000000000, 1.224646799147353207E-16 ) ) ;
#164 = CARTESIAN_POINT ( 'NONE',  ( 1.164330969412166247E-15, -4.083923287733222320E-17, 0.3334776435602990752 ) ) ;
#165 = APPROVAL_PERSON_ORGANIZATION ( #138, #137, #86 ) ;
#166 = DIRECTION ( 'NONE',  ( 4.275831445896958607E-31, 1.000000000000000000, 1.224646799147353207E-16 ) ) ;
#167 = DIRECTION ( 'NONE',  ( -4.275831445896958607E-31, -1.000000000000000000, -1.224646799147353207E-16 ) ) ;
#168 = DESIGN_CONTEXT ( 'detailed design', #88, 'design' ) ;
#169 = APPROVAL ( #223, 'UNSPECIFIED' ) ;
#170 = DATE_TIME_ROLE ( 'creation_date' ) ;
#171 = DIRECTION ( 'NONE',  ( 1.000000000000000000, 0.0000000000000000000, 0.0000000000000000000 ) ) ;
#172 = APPROVAL_STATUS ( 'not_yet_approved' ) ;
#173 = AXIS2_PLACEMENT_3D ( 'NONE', #200, #63, #167 ) ;
#174 = APPROVAL_ROLE ( '' ) ;
#175 = CC_DESIGN_DATE_AND_TIME_ASSIGNMENT ( #206, #186, ( #217 ) ) ;
#176 = ORIENTED_EDGE ( 'NONE', *, *, #123, .T. ) ;
#177 = AXIS2_PLACEMENT_3D ( 'NONE', #150, #114, #99 ) ;
#178 = PERSON ( 'UNSPECIFIED', 'UNSPECIFIED', 'UNSPECIFIED', ('UNSPECIFIED'), ('UNSPECIFIED'), ('UNSPECIFIED') ) ;
#179 = ORIENTED_EDGE ( 'NONE', *, *, #153, .F. ) ;
#180 = DIRECTION ( 'NONE',  ( 4.275831445896959482E-31, 1.000000000000000000, 1.224646799147353207E-16 ) ) ;
#181 = DIRECTION ( 'NONE',  ( -3.491481338843133355E-15, 1.224646799147353207E-16, -1.000000000000000000 ) ) ;
#182 = DIRECTION ( 'NONE',  ( 0.0000000000000000000, 1.000000000000000000, 0.0000000000000000000 ) ) ;
#183 = DIRECTION ( 'NONE',  ( -3.491481338843133355E-15, 1.224646799147353207E-16, -1.000000000000000000 ) ) ;
#184 = DIRECTION ( 'NONE',  ( -3.470144043940971932E-31, -1.000000000000000000, -9.767587139509067055E-17 ) ) ;
#185 = EDGE_CURVE ( 'NONE', #190, #190, #161, .T. ) ;
#186 = DATE_TIME_ROLE ( 'classification_date' ) ;
#187 = APPROVAL_PERSON_ORGANIZATION ( #205, #169, #174 ) ;
#188 =( LENGTH_UNIT ( ) NAMED_UNIT ( * ) SI_UNIT ( .MILLI., .METRE. ) );
#189 = PERSON_AND_ORGANIZATION ( #178, #139 ) ;
#190 = VERTEX_POINT ( 'NONE', #119 ) ;
#191 = APPROVAL_DATE_TIME ( #158, #137 ) ;
#192 = DIRECTION ( 'NONE',  ( -3.491481338843133355E-15, 1.224646799147353207E-16, -1.000000000000000000 ) ) ;
#193 = CIRCLE ( 'NONE', #177, 0.5550000000000010481 ) ;
#194 = EDGE_LOOP ( 'NONE', ( #142 ) ) ;
#195 = EDGE_LOOP ( 'NONE', ( #179 ) ) ;
#196 = CARTESIAN_POINT ( 'NONE',  ( 3.260257954873640795E-14, -1.143544553542889311E-15, 9.337749907475931366 ) ) ;
#197 = MANIFOLD_SOLID_BREP ( 'Corps-Déplacer/Copier1[2]', #91 ) ;
#198 = DIRECTION ( 'NONE',  ( 0.0000000000000000000, -1.000000000000000000, 0.0000000000000000000 ) ) ;
#199 = MANIFOLD_SOLID_BREP ( 'Corps-Déplacer/Copier1[1]', #75 ) ;
#200 = CARTESIAN_POINT ( 'NONE',  ( 3.142333204958820651E-14, -2.082805218291900959E-31, 9.000000000000001776 ) ) ;
#201 = AXIS2_PLACEMENT_3D ( 'NONE', #12, #82, #14 ) ;
#202 = VERTEX_POINT ( 'NONE', #83 ) ;
#203 = CIRCLE ( 'NONE', #72, 0.7499999999999975575 ) ;
#204 = CIRCLE ( 'NONE', #52, 0.5549999999999989386 ) ;
#205 = PERSON_AND_ORGANIZATION ( #178, #139 ) ;
#206 = DATE_AND_TIME ( #136, #26 ) ;
#207 = COORDINATED_UNIVERSAL_TIME_OFFSET ( 1, 0, .AHEAD. ) ;
#208 = APPLICATION_PROTOCOL_DEFINITION ( 'international standard', 'config_control_design', 1994, #88 ) ;
#209 = CC_DESIGN_DATE_AND_TIME_ASSIGNMENT ( #64, #170, ( #146 ) ) ;
#210 = EDGE_LOOP ( 'NONE', ( #109 ) ) ;
#211 = EDGE_LOOP ( 'NONE', ( #5 ) ) ;
#212 = SHAPE_DEFINITION_REPRESENTATION ( #36, #4 ) ;
#213 = PLANE ( 'NONE',  #6 ) ;
#214 = EDGE_LOOP ( 'NONE', ( #54 ) ) ;
#215 = VERTEX_POINT ( 'NONE', #56 ) ;
#216 = CC_DESIGN_PERSON_AND_ORGANIZATION_ASSIGNMENT ( #46, #117, ( #217 ) ) ;
#217 = SECURITY_CLASSIFICATION ( '', '', #69 ) ;
#218 = DIRECTION ( 'NONE',  ( -3.491481338843133355E-15, 1.224646799147353207E-16, -1.000000000000000000 ) ) ;
#219 = CYLINDRICAL_SURFACE ( 'NONE', #100, 0.7499999999999986677 ) ;
#220 = DIRECTION ( 'NONE',  ( 0.0000000000000000000, 1.000000000000000000, 0.0000000000000000000 ) ) ;
#221 = CARTESIAN_POINT ( 'NONE',  ( 3.142333204958820651E-14, 0.5549999999999999378, 9.000000000000001776 ) ) ;
#222 = CALENDAR_DATE ( 2021, 7, 10 ) ;
#223 = APPROVAL_STATUS ( 'not_yet_approved' ) ;
ENDSEC;
END-ISO-10303-21;
