ISO-10303-21;
HEADER;
FILE_DESCRIPTION (( 'STEP AP203' ),
    '1' );
FILE_NAME ('37008.step',
    '2021-10-07T13:47:10',
    ( '' ),
    ( '' ),
    'SwSTEP 2.0',
    'SolidWorks 2019',
    '' );
FILE_SCHEMA (( 'CONFIG_CONTROL_DESIGN' ));
ENDSEC;

DATA;
#1 = DIRECTION ( 'NONE',  ( 0.0000000000000000000, 1.000000000000000000, 0.0000000000000000000 ) ) ;
#2 = COORDINATED_UNIVERSAL_TIME_OFFSET ( 1, 0, .AHEAD. ) ;
#3 = AXIS2_PLACEMENT_3D ( 'NONE', #135, #106, #196 ) ;
#4 = APPROVAL_STATUS ( 'not_yet_approved' ) ;
#5 = ORIENTED_EDGE ( 'NONE', *, *, #48, .T. ) ;
#6 = CALENDAR_DATE ( 2021, 7, 10 ) ;
#7 = CIRCLE ( 'NONE', #197, 0.5500000000000001554 ) ;
#8 = CC_DESIGN_APPROVAL ( #76, ( #160 ) ) ;
#9 = APPROVAL_PERSON_ORGANIZATION ( #152, #76, #134 ) ;
#10 = CARTESIAN_POINT ( 'NONE',  ( 1.040461438975253740E-13, -3.649447461459112464E-15, 29.80000000000000071 ) ) ;
#11 = DIRECTION ( 'NONE',  ( -4.275831445896958607E-31, -1.000000000000000000, -1.224646799147353207E-16 ) ) ;
#12 = DIRECTION ( 'NONE',  ( -3.491481338843133355E-15, 1.224646799147353207E-16, -1.000000000000000000 ) ) ;
#13 = FACE_OUTER_BOUND ( 'NONE', #45, .T. ) ;
#14 = AXIS2_PLACEMENT_3D ( 'NONE', #30, #50, #190 ) ;
#15 = PLANE ( 'NONE',  #80 ) ;
#16 = ADVANCED_FACE ( 'NONE', ( #195, #181 ), #61, .T. ) ;
#17 = PERSON_AND_ORGANIZATION ( #90, #110 ) ;
#18 = AXIS2_PLACEMENT_3D ( 'NONE', #52, #128, #31 ) ;
#19 = CALENDAR_DATE ( 2021, 7, 10 ) ;
#20 = PRODUCT_RELATED_PRODUCT_CATEGORY ( 'detail', '', ( #142 ) ) ;
#21 = APPROVAL_STATUS ( 'not_yet_approved' ) ;
#22 = EDGE_CURVE ( 'NONE', #146, #146, #71, .T. ) ;
#23 = ORIENTED_EDGE ( 'NONE', *, *, #214, .F. ) ;
#24 = AXIS2_PLACEMENT_3D ( 'NONE', #49, #150, #1 ) ;
#25 = CARTESIAN_POINT ( 'NONE',  ( 0.0000000000000000000, 0.0000000000000000000, 0.0000000000000000000 ) ) ;
#26 = EDGE_LOOP ( 'NONE', ( #96 ) ) ;
#27 = ORIENTED_EDGE ( 'NONE', *, *, #198, .F. ) ;
#28 = CLOSED_SHELL ( 'NONE', ( #207, #178, #16, #200, #65 ) ) ;
#29 = LOCAL_TIME ( 15, 47, 10.00000000000000000, #158 ) ;
#30 = CARTESIAN_POINT ( 'NONE',  ( 1.143352033026361089E-15, -4.010339084350640388E-17, 0.3274690373700233081 ) ) ;
#31 = DIRECTION ( 'NONE',  ( 0.0000000000000000000, -1.000000000000000000, 0.0000000000000000000 ) ) ;
#32 = DIRECTION ( 'NONE',  ( -3.491481338843133355E-15, 1.224646799147353207E-16, -1.000000000000000000 ) ) ;
#33 = DIRECTION ( 'NONE',  ( -3.491481338843133355E-15, 1.224646799147353207E-16, -1.000000000000000000 ) ) ;
#34 = LOCAL_TIME ( 15, 47, 10.00000000000000000, #208 ) ;
#35 = FACE_OUTER_BOUND ( 'NONE', #216, .T. ) ;
#36 = COORDINATED_UNIVERSAL_TIME_OFFSET ( 1, 0, .AHEAD. ) ;
#37 = PERSON_AND_ORGANIZATION ( #90, #110 ) ;
#38 = EDGE_CURVE ( 'NONE', #169, #169, #172, .T. ) ;
#39 = PERSON_AND_ORGANIZATION ( #90, #110 ) ;
#40 = PRODUCT_DEFINITION_SHAPE ( 'NONE', 'NONE',  #94 ) ;
#41 = CONICAL_SURFACE ( 'NONE', #18, 0.7499999999999975575, 0.5235987755982944858 ) ;
#42 = SHAPE_DEFINITION_REPRESENTATION ( #40, #47 ) ;
#43 = ORIENTED_EDGE ( 'NONE', *, *, #48, .F. ) ;
#44 = MANIFOLD_SOLID_BREP ( 'Corps-Déplacer/Copier1[2]', #149 ) ;
#45 = EDGE_LOOP ( 'NONE', ( #27 ) ) ;
#46 = CARTESIAN_POINT ( 'NONE',  ( 3.142333204958820651E-14, -1.102182119232617911E-15, 9.000000000000001776 ) ) ;
#47 = ADVANCED_BREP_SHAPE_REPRESENTATION ( '37008', ( #51, #44, #3 ), #84 ) ;
#48 = EDGE_CURVE ( 'NONE', #82, #82, #7, .T. ) ;
#49 = CARTESIAN_POINT ( 'NONE',  ( 1.047444401652940007E-13, -3.673940397442059178E-15, 30.00000000000000000 ) ) ;
#50 = DIRECTION ( 'NONE',  ( 3.491481338843133355E-15, -1.224646799147353207E-16, 1.000000000000000000 ) ) ;
#51 = MANIFOLD_SOLID_BREP ( 'Corps-Déplacer/Copier1[1]', #28 ) ;
#52 = CARTESIAN_POINT ( 'NONE',  ( 3.266305377946195173E-14, -1.145665704020339005E-15, 9.355070415551619334 ) ) ;
#53 = CARTESIAN_POINT ( 'NONE',  ( 1.143352033026361286E-15, 0.5449999999999989297, 0.3274690373700233637 ) ) ;
#54 = AXIS2_PLACEMENT_3D ( 'NONE', #114, #32, #64 ) ;
#55 = PERSON_AND_ORGANIZATION_ROLE ( 'creator' ) ;
#56 = CALENDAR_DATE ( 2021, 7, 10 ) ;
#57 = EDGE_LOOP ( 'NONE', ( #23 ) ) ;
#58 = DATE_TIME_ROLE ( 'creation_date' ) ;
#59 = CONICAL_SURFACE ( 'NONE', #14, 0.5449999999999989297, 1.029744258676649649 ) ;
#60 = CC_DESIGN_PERSON_AND_ORGANIZATION_ASSIGNMENT ( #39, #176, ( #142 ) ) ;
#61 = CYLINDRICAL_SURFACE ( 'NONE', #217, 0.7499999999999986677 ) ;
#62 = AXIS2_PLACEMENT_3D ( 'NONE', #166, #204, #101 ) ;
#63 = ORIENTED_EDGE ( 'NONE', *, *, #214, .T. ) ;
#64 = DIRECTION ( 'NONE',  ( 4.275831445896958607E-31, 1.000000000000000000, 1.224646799147353207E-16 ) ) ;
#65 = ADVANCED_FACE ( 'NONE', ( #115 ), #15, .F. ) ;
#66 = CYLINDRICAL_SURFACE ( 'NONE', #54, 0.5449999999999997069 ) ;
#67 = DIRECTION ( 'NONE',  ( -3.491481338843133355E-15, 1.224646799147353207E-16, -1.000000000000000000 ) ) ;
#68 = DIRECTION ( 'NONE',  ( 0.0000000000000000000, 1.000000000000000000, 0.0000000000000000000 ) ) ;
#69 = DIRECTION ( 'NONE',  ( -3.491481338843133355E-15, 1.224646799147353207E-16, -1.000000000000000000 ) ) ;
#70 = MECHANICAL_CONTEXT ( 'NONE', #93, 'mechanical' ) ;
#71 = CIRCLE ( 'NONE', #179, 0.5450000000000005951 ) ;
#72 = PERSON_AND_ORGANIZATION ( #90, #110 ) ;
#73 = EDGE_LOOP ( 'NONE', ( #199 ) ) ;
#74 = DATE_AND_TIME ( #56, #34 ) ;
#75 = EDGE_LOOP ( 'NONE', ( #182 ) ) ;
#76 = APPROVAL ( #21, 'UNSPECIFIED' ) ;
#77 = DATE_AND_TIME ( #19, #175 ) ;
#78 = APPROVAL_DATE_TIME ( #163, #76 ) ;
#79 = CC_DESIGN_SECURITY_CLASSIFICATION ( #160, ( #107 ) ) ;
#80 = AXIS2_PLACEMENT_3D ( 'NONE', #100, #67, #129 ) ;
#81 = FACE_OUTER_BOUND ( 'NONE', #123, .T. ) ;
#82 = VERTEX_POINT ( 'NONE', #205 ) ;
#83 = CARTESIAN_POINT ( 'NONE',  ( 1.047444401652940007E-13, -3.673940397442059178E-15, 30.00000000000000000 ) ) ;
#84 =( GEOMETRIC_REPRESENTATION_CONTEXT ( 3 ) GLOBAL_UNCERTAINTY_ASSIGNED_CONTEXT ( ( #118 ) ) GLOBAL_UNIT_ASSIGNED_CONTEXT ( ( #105, #194, #156 ) ) REPRESENTATION_CONTEXT ( 'NONE', 'WORKASPACE' ) );
#85 = FACE_BOUND ( 'NONE', #215, .T. ) ;
#86 = CC_DESIGN_DATE_AND_TIME_ASSIGNMENT ( #104, #58, ( #94 ) ) ;
#87 = FACE_BOUND ( 'NONE', #140, .T. ) ;
#88 = SECURITY_CLASSIFICATION_LEVEL ( 'unclassified' ) ;
#89 = CALENDAR_DATE ( 2021, 7, 10 ) ;
#90 = PERSON ( 'UNSPECIFIED', 'UNSPECIFIED', 'UNSPECIFIED', ('UNSPECIFIED'), ('UNSPECIFIED'), ('UNSPECIFIED') ) ;
#91 = PERSON_AND_ORGANIZATION_ROLE ( 'classification_officer' ) ;
#92 = APPLICATION_PROTOCOL_DEFINITION ( 'international standard', 'config_control_design', 1994, #93 ) ;
#93 = APPLICATION_CONTEXT ( 'configuration controlled 3d designs of mechanical parts and assemblies' ) ;
#94 = PRODUCT_DEFINITION ( 'UNKNOWN', '', #107, #165 ) ;
#95 = DIRECTION ( 'NONE',  ( 4.275831445896959482E-31, 1.000000000000000000, 1.224646799147353207E-16 ) ) ;
#96 = ORIENTED_EDGE ( 'NONE', *, *, #122, .T. ) ;
#97 = CC_DESIGN_DATE_AND_TIME_ASSIGNMENT ( #139, #211, ( #160 ) ) ;
#98 = CIRCLE ( 'NONE', #192, 0.5450000000000005951 ) ;
#99 = PLANE ( 'NONE',  #62 ) ;
#100 = CARTESIAN_POINT ( 'NONE',  ( 1.047444401652940007E-13, 4.124339402320053683E-33, 30.00000000000000000 ) ) ;
#101 = DIRECTION ( 'NONE',  ( -4.275831445896958607E-31, -1.000000000000000000, -1.224646799147353207E-16 ) ) ;
#102 = CC_DESIGN_PERSON_AND_ORGANIZATION_ASSIGNMENT ( #121, #91, ( #160 ) ) ;
#103 = PERSON_AND_ORGANIZATION ( #90, #110 ) ;
#104 = DATE_AND_TIME ( #89, #167 ) ;
#105 =( LENGTH_UNIT ( ) NAMED_UNIT ( * ) SI_UNIT ( .MILLI., .METRE. ) );
#106 = DIRECTION ( 'NONE',  ( 0.0000000000000000000, 0.0000000000000000000, 1.000000000000000000 ) ) ;
#107 = PRODUCT_DEFINITION_FORMATION_WITH_SPECIFIED_SOURCE ( 'ANY', '', #142, .NOT_KNOWN. ) ;
#108 = EDGE_LOOP ( 'NONE', ( #144 ) ) ;
#109 = DIRECTION ( 'NONE',  ( -3.491481338843133355E-15, 1.224646799147353207E-16, -1.000000000000000000 ) ) ;
#110 = ORGANIZATION ( 'UNSPECIFIED', 'UNSPECIFIED', '' ) ;
#111 = CARTESIAN_POINT ( 'NONE',  ( 1.040461438975253740E-13, 0.7499999999999963363, 29.80000000000000071 ) ) ;
#112 = APPLICATION_CONTEXT ( 'configuration controlled 3d designs of mechanical parts and assemblies' ) ;
#113 = APPROVAL ( #191, 'UNSPECIFIED' ) ;
#114 = CARTESIAN_POINT ( 'NONE',  ( 0.0000000000000000000, 0.0000000000000000000, 0.0000000000000000000 ) ) ;
#115 = FACE_OUTER_BOUND ( 'NONE', #209, .T. ) ;
#116 = AXIS2_PLACEMENT_3D ( 'NONE', #148, #12, #219 ) ;
#117 = CARTESIAN_POINT ( 'NONE',  ( 3.142333204958820651E-14, -2.083555098183231510E-31, 9.000000000000001776 ) ) ;
#118 = UNCERTAINTY_MEASURE_WITH_UNIT (LENGTH_MEASURE( 1.000000000000000082E-05 ), #105, 'distance_accuracy_value', 'NONE');
#119 = APPLICATION_PROTOCOL_DEFINITION ( 'international standard', 'config_control_design', 1994, #112 ) ;
#120 = APPROVAL_DATE_TIME ( #74, #180 ) ;
#121 = PERSON_AND_ORGANIZATION ( #90, #110 ) ;
#122 = EDGE_CURVE ( 'NONE', #147, #147, #133, .T. ) ;
#123 = EDGE_LOOP ( 'NONE', ( #212 ) ) ;
#124 = CALENDAR_DATE ( 2021, 7, 10 ) ;
#125 = CC_DESIGN_PERSON_AND_ORGANIZATION_ASSIGNMENT ( #177, #174, ( #107 ) ) ;
#126 = APPROVAL_PERSON_ORGANIZATION ( #103, #113, #161 ) ;
#127 = DIRECTION ( 'NONE',  ( 3.491481338843133355E-15, -1.224646799147353207E-16, 1.000000000000000000 ) ) ;
#128 = DIRECTION ( 'NONE',  ( 3.491481338843133355E-15, -1.224646799147353207E-16, 1.000000000000000000 ) ) ;
#129 = DIRECTION ( 'NONE',  ( 4.275831445896958607E-31, 1.000000000000000000, 1.224646799147353207E-16 ) ) ;
#130 = CARTESIAN_POINT ( 'NONE',  ( 3.266305377946195173E-14, 0.7499999999999963363, 9.355070415551619334 ) ) ;
#131 = CARTESIAN_POINT ( 'NONE',  ( 3.142333204958820651E-14, 0.5449999999999994849, 9.000000000000001776 ) ) ;
#132 = ADVANCED_FACE ( 'NONE', ( #170 ), #59, .T. ) ;
#133 = CIRCLE ( 'NONE', #153, 0.5449999999999989297 ) ;
#134 = APPROVAL_ROLE ( '' ) ;
#135 = CARTESIAN_POINT ( 'NONE',  ( 0.0000000000000000000, 0.0000000000000000000, 0.0000000000000000000 ) ) ;
#136 = APPROVAL_ROLE ( '' ) ;
#137 = ORIENTED_EDGE ( 'NONE', *, *, #198, .T. ) ;
#138 = AXIS2_PLACEMENT_3D ( 'NONE', #117, #127, #11 ) ;
#139 = DATE_AND_TIME ( #6, #29 ) ;
#140 = EDGE_LOOP ( 'NONE', ( #159 ) ) ;
#141 = VERTEX_POINT ( 'NONE', #155 ) ;
#142 = PRODUCT ( '37008', '37008', '', ( #70 ) ) ;
#143 = CIRCLE ( 'NONE', #189, 0.7500000000000000000 ) ;
#144 = ORIENTED_EDGE ( 'NONE', *, *, #38, .T. ) ;
#145 = CONICAL_SURFACE ( 'NONE', #24, 0.5500000000000001554, 0.7853981633974510546 ) ;
#146 = VERTEX_POINT ( 'NONE', #131 ) ;
#147 = VERTEX_POINT ( 'NONE', #53 ) ;
#148 = CARTESIAN_POINT ( 'NONE',  ( 3.266305377946195173E-14, -1.145665704020339005E-15, 9.355070415551619334 ) ) ;
#149 = CLOSED_SHELL ( 'NONE', ( #132, #157, #168 ) ) ;
#150 = DIRECTION ( 'NONE',  ( -3.491481338843133355E-15, 1.224646799147353207E-16, -1.000000000000000000 ) ) ;
#151 = FACE_OUTER_BOUND ( 'NONE', #73, .T. ) ;
#152 = PERSON_AND_ORGANIZATION ( #90, #110 ) ;
#153 = AXIS2_PLACEMENT_3D ( 'NONE', #173, #203, #184 ) ;
#154 = LOCAL_TIME ( 15, 47, 10.00000000000000000, #206 ) ;
#155 = CARTESIAN_POINT ( 'NONE',  ( 3.142333204958820651E-14, 0.5449999999999994849, 9.000000000000001776 ) ) ;
#156 =( NAMED_UNIT ( * ) SI_UNIT ( $, .STERADIAN. ) SOLID_ANGLE_UNIT ( ) );
#157 = ADVANCED_FACE ( 'NONE', ( #151, #35 ), #66, .T. ) ;
#158 = COORDINATED_UNIVERSAL_TIME_OFFSET ( 1, 0, .AHEAD. ) ;
#159 = ORIENTED_EDGE ( 'NONE', *, *, #22, .F. ) ;
#160 = SECURITY_CLASSIFICATION ( '', '', #88 ) ;
#161 = APPROVAL_ROLE ( '' ) ;
#162 = CC_DESIGN_PERSON_AND_ORGANIZATION_ASSIGNMENT ( #17, #193, ( #107 ) ) ;
#163 = DATE_AND_TIME ( #124, #154 ) ;
#164 = DIRECTION ( 'NONE',  ( -3.491481338843133355E-15, 1.224646799147353207E-16, -1.000000000000000000 ) ) ;
#165 = DESIGN_CONTEXT ( 'detailed design', #112, 'design' ) ;
#166 = CARTESIAN_POINT ( 'NONE',  ( 3.142333204958820651E-14, -2.083555098183231510E-31, 9.000000000000001776 ) ) ;
#167 = LOCAL_TIME ( 15, 47, 10.00000000000000000, #2 ) ;
#168 = ADVANCED_FACE ( 'NONE', ( #218 ), #99, .T. ) ;
#169 = VERTEX_POINT ( 'NONE', #130 ) ;
#170 = FACE_OUTER_BOUND ( 'NONE', #26, .T. ) ;
#171 = DIRECTION ( 'NONE',  ( 0.0000000000000000000, 1.000000000000000000, 0.0000000000000000000 ) ) ;
#172 = CIRCLE ( 'NONE', #116, 0.7499999999999975575 ) ;
#173 = CARTESIAN_POINT ( 'NONE',  ( 1.143352033026361089E-15, -4.010339084350640388E-17, 0.3274690373700233081 ) ) ;
#174 = PERSON_AND_ORGANIZATION_ROLE ( 'creator' ) ;
#175 = LOCAL_TIME ( 15, 47, 10.00000000000000000, #36 ) ;
#176 = PERSON_AND_ORGANIZATION_ROLE ( 'design_owner' ) ;
#177 = PERSON_AND_ORGANIZATION ( #90, #110 ) ;
#178 = ADVANCED_FACE ( 'NONE', ( #87, #188 ), #41, .T. ) ;
#179 = AXIS2_PLACEMENT_3D ( 'NONE', #46, #109, #187 ) ;
#180 = APPROVAL ( #4, 'UNSPECIFIED' ) ;
#181 = FACE_OUTER_BOUND ( 'NONE', #183, .T. ) ;
#182 = ORIENTED_EDGE ( 'NONE', *, *, #38, .F. ) ;
#183 = EDGE_LOOP ( 'NONE', ( #137 ) ) ;
#184 = DIRECTION ( 'NONE',  ( 3.533816411719705735E-31, 1.000000000000000000, 9.946808921885381264E-17 ) ) ;
#185 = CC_DESIGN_APPROVAL ( #113, ( #94 ) ) ;
#186 = DIRECTION ( 'NONE',  ( -3.491481338843133355E-15, 1.224646799147353207E-16, -1.000000000000000000 ) ) ;
#187 = DIRECTION ( 'NONE',  ( 0.0000000000000000000, 1.000000000000000000, 0.0000000000000000000 ) ) ;
#188 = FACE_OUTER_BOUND ( 'NONE', #108, .T. ) ;
#189 = AXIS2_PLACEMENT_3D ( 'NONE', #10, #33, #171 ) ;
#190 = DIRECTION ( 'NONE',  ( -3.533816411719705735E-31, -1.000000000000000000, -9.946808921885381264E-17 ) ) ;
#191 = APPROVAL_STATUS ( 'not_yet_approved' ) ;
#192 = AXIS2_PLACEMENT_3D ( 'NONE', #201, #69, #68 ) ;
#193 = PERSON_AND_ORGANIZATION_ROLE ( 'design_supplier' ) ;
#194 =( NAMED_UNIT ( * ) PLANE_ANGLE_UNIT ( ) SI_UNIT ( $, .RADIAN. ) );
#195 = FACE_OUTER_BOUND ( 'NONE', #75, .T. ) ;
#196 = DIRECTION ( 'NONE',  ( 1.000000000000000000, 0.0000000000000000000, 0.0000000000000000000 ) ) ;
#197 = AXIS2_PLACEMENT_3D ( 'NONE', #83, #186, #220 ) ;
#198 = EDGE_CURVE ( 'NONE', #202, #202, #143, .T. ) ;
#199 = ORIENTED_EDGE ( 'NONE', *, *, #122, .F. ) ;
#200 = ADVANCED_FACE ( 'NONE', ( #13, #85 ), #145, .T. ) ;
#201 = CARTESIAN_POINT ( 'NONE',  ( 3.142333204958820651E-14, -1.102182119232617911E-15, 9.000000000000001776 ) ) ;
#202 = VERTEX_POINT ( 'NONE', #111 ) ;
#203 = DIRECTION ( 'NONE',  ( -3.491481338843133355E-15, 1.224646799147353207E-16, -1.000000000000000000 ) ) ;
#204 = DIRECTION ( 'NONE',  ( 3.491481338843133355E-15, -1.224646799147353207E-16, 1.000000000000000000 ) ) ;
#205 = CARTESIAN_POINT ( 'NONE',  ( 1.047444401652940007E-13, 0.5499999999999964917, 30.00000000000000000 ) ) ;
#206 = COORDINATED_UNIVERSAL_TIME_OFFSET ( 1, 0, .AHEAD. ) ;
#207 = ADVANCED_FACE ( 'NONE', ( #81 ), #223, .F. ) ;
#208 = COORDINATED_UNIVERSAL_TIME_OFFSET ( 1, 0, .AHEAD. ) ;
#209 = EDGE_LOOP ( 'NONE', ( #43 ) ) ;
#210 = APPROVAL_PERSON_ORGANIZATION ( #37, #180, #136 ) ;
#211 = DATE_TIME_ROLE ( 'classification_date' ) ;
#212 = ORIENTED_EDGE ( 'NONE', *, *, #22, .T. ) ;
#213 = APPROVAL_DATE_TIME ( #77, #113 ) ;
#214 = EDGE_CURVE ( 'NONE', #141, #141, #98, .T. ) ;
#215 = EDGE_LOOP ( 'NONE', ( #5 ) ) ;
#216 = EDGE_LOOP ( 'NONE', ( #63 ) ) ;
#217 = AXIS2_PLACEMENT_3D ( 'NONE', #25, #164, #95 ) ;
#218 = FACE_OUTER_BOUND ( 'NONE', #57, .T. ) ;
#219 = DIRECTION ( 'NONE',  ( 0.0000000000000000000, 1.000000000000000000, 0.0000000000000000000 ) ) ;
#220 = DIRECTION ( 'NONE',  ( 0.0000000000000000000, 1.000000000000000000, 0.0000000000000000000 ) ) ;
#221 = CC_DESIGN_APPROVAL ( #180, ( #107 ) ) ;
#222 = CC_DESIGN_PERSON_AND_ORGANIZATION_ASSIGNMENT ( #72, #55, ( #94 ) ) ;
#223 = PLANE ( 'NONE',  #138 ) ;
ENDSEC;
END-ISO-10303-21;
